  0
SECTION
  2
HEADER
  9
$ACADVER
  1
AC1015
  9
$ACADMAINTVER
 70
     6
  9
$DWGCODEPAGE
  3
ANSI_1254
  9
$INSBASE
 10
0.0
 20
0.0
 30
0.0
  9
$EXTMIN
 10
0.0
 20
0.0
 30
0.0
  9
$EXTMAX
 10
279.4
 20
215.9
 30
0.0
  9
$LIMMIN
 10
0.0
 20
0.0
  9
$LIMMAX
 10
279.4
 20
215.9
  9
$ORTHOMODE
 70
     0
  9
$REGENMODE
 70
     1
  9
$FILLMODE
 70
     1
  9
$QTEXTMODE
 70
     0
  9
$MIRRTEXT
 70
     1
  9
$LTSCALE
 40
1.0
  9
$ATTMODE
 70
     1
  9
$TEXTSIZE
 40
3.5
  9
$TRACEWID
 40
1.0
  9
$TEXTSTYLE
  7
Standard
  9
$CLAYER
  8
0
  9
$CELTYPE
  6
ByLayer
  9
$CECOLOR
 62
   256
  9
$CELTSCALE
 40
1.0
  9
$DISPSILH
 70
     0
  9
$DIMSCALE
 40
1.0
  9
$DIMASZ
 40
3.5
  9
$DIMEXO
 40
1.0
  9
$DIMDLI
 40
3.75
  9
$DIMRND
 40
0.0
  9
$DIMDLE
 40
0.0
  9
$DIMEXE
 40
1.0
  9
$DIMTP
 40
0.0
  9
$DIMTM
 40
0.0
  9
$DIMTXT
 40
3.5
  9
$DIMCEN
 40
2.5
  9
$DIMTSZ
 40
0.0
  9
$DIMTOL
 70
     0
  9
$DIMLIM
 70
     0
  9
$DIMTIH
 70
     1
  9
$DIMTOH
 70
     1
  9
$DIMSE1
 70
     0
  9
$DIMSE2
 70
     0
  9
$DIMTAD
 70
     1
  9
$DIMZIN
 70
     0
  9
$DIMBLK
  1

  9
$DIMASO
 70
     1
  9
$DIMSHO
 70
     1
  9
$DIMPOST
  1

  9
$DIMAPOST
  1

  9
$DIMALT
 70
     0
  9
$DIMALTD
 70
     3
  9
$DIMALTF
 40
0.0393700787
  9
$DIMLFAC
 40
1.0
  9
$DIMTOFL
 70
     1
  9
$DIMTVP
 40
0.0
  9
$DIMTIX
 70
     0
  9
$DIMSOXD
 70
     0
  9
$DIMSAH
 70
     0
  9
$DIMBLK1
  1

  9
$DIMBLK2
  1

  9
$DIMSTYLE
  2
ISO-25
  9
$DIMCLRD
 70
     0
  9
$DIMCLRE
 70
     0
  9
$DIMCLRT
 70
     0
  9
$DIMTFAC
 40
1.0
  9
$DIMGAP
 40
1.524
  9
$DIMJUST
 70
     0
  9
$DIMSD1
 70
     0
  9
$DIMSD2
 70
     0
  9
$DIMTOLJ
 70
     0
  9
$DIMTZIN
 70
     0
  9
$DIMALTZ
 70
     0
  9
$DIMALTTZ
 70
     0
  9
$DIMUPT
 70
     0
  9
$DIMDEC
 70
     2
  9
$DIMTDEC
 70
     2
  9
$DIMALTU
 70
     2
  9
$DIMALTTD
 70
     3
  9
$DIMTXSTY
  7
Standard
  9
$DIMAUNIT
 70
     0
  9
$DIMADEC
 70
     2
  9
$DIMALTRND
 40
0.0
  9
$DIMAZIN
 70
     0
  9
$DIMDSEP
 70
    44
  9
$DIMATFIT
 70
     3
  9
$DIMFRAC
 70
     0
  9
$DIMLDRBLK
  1

  9
$DIMLUNIT
 70
     2
  9
$DIMLWD
 70
    -2
  9
$DIMLWE
 70
    -2
  9
$DIMTMOVE
 70
     0
  9
$LUNITS
 70
     2
  9
$LUPREC
 70
     2
  9
$SKETCHINC
 40
1.0
  9
$FILLETRAD
 40
10.0
  9
$AUNITS
 70
     0
  9
$AUPREC
 70
     2
  9
$MENU
  1
.
  9
$ELEVATION
 40
0.0
  9
$PELEVATION
 40
0.0
  9
$THICKNESS
 40
0.0
  9
$LIMCHECK
 70
     0
  9
$CHAMFERA
 40
0.0
  9
$CHAMFERB
 40
0.0
  9
$CHAMFERC
 40
0.0
  9
$CHAMFERD
 40
0.0
  9
$SKPOLY
 70
     0
  9
$TDCREATE
 40
2459741.607894248
  9
$TDUCREATE
 40
2459741.482894248
  9
$TDUPDATE
 40
2459741.607894433
  9
$TDUUPDATE
 40
2459741.482894433
  9
$TDINDWG
 40
0.0000000116
  9
$TDUSRTIMER
 40
0.0000000116
  9
$USRTIMER
 70
     1
  9
$ANGBASE
 50
0.0
  9
$ANGDIR
 70
     0
  9
$PDMODE
 70
     0
  9
$PDSIZE
 40
-1.0
  9
$PLINEWID
 40
0.0
  9
$SPLFRAME
 70
     0
  9
$SPLINETYPE
 70
     6
  9
$SPLINESEGS
 70
     8
  9
$HANDSEED
  5
104
  9
$SURFTAB1
 70
     6
  9
$SURFTAB2
 70
     6
  9
$SURFTYPE
 70
     6
  9
$SURFU
 70
     6
  9
$SURFV
 70
     6
  9
$UCSBASE
  2

  9
$UCSNAME
  2

  9
$UCSORG
 10
0.0
 20
0.0
 30
0.0
  9
$UCSXDIR
 10
1.0
 20
0.0
 30
0.0
  9
$UCSYDIR
 10
0.0
 20
1.0
 30
0.0
  9
$UCSORTHOREF
  2

  9
$UCSORTHOVIEW
 70
     0
  9
$UCSORGTOP
 10
0.0
 20
0.0
 30
0.0
  9
$UCSORGBOTTOM
 10
0.0
 20
0.0
 30
0.0
  9
$UCSORGLEFT
 10
0.0
 20
0.0
 30
0.0
  9
$UCSORGRIGHT
 10
0.0
 20
0.0
 30
0.0
  9
$UCSORGFRONT
 10
0.0
 20
0.0
 30
0.0
  9
$UCSORGBACK
 10
0.0
 20
0.0
 30
0.0
  9
$PUCSBASE
  2

  9
$PUCSNAME
  2

  9
$PUCSORG
 10
0.0
 20
0.0
 30
0.0
  9
$PUCSXDIR
 10
1.0
 20
0.0
 30
0.0
  9
$PUCSYDIR
 10
0.0
 20
1.0
 30
0.0
  9
$PUCSORTHOREF
  2

  9
$PUCSORTHOVIEW
 70
     0
  9
$PUCSORGTOP
 10
0.0
 20
0.0
 30
0.0
  9
$PUCSORGBOTTOM
 10
0.0
 20
0.0
 30
0.0
  9
$PUCSORGLEFT
 10
0.0
 20
0.0
 30
0.0
  9
$PUCSORGRIGHT
 10
0.0
 20
0.0
 30
0.0
  9
$PUCSORGFRONT
 10
0.0
 20
0.0
 30
0.0
  9
$PUCSORGBACK
 10
0.0
 20
0.0
 30
0.0
  9
$USERI1
 70
     0
  9
$USERI2
 70
     0
  9
$USERI3
 70
     0
  9
$USERI4
 70
     0
  9
$USERI5
 70
     0
  9
$USERR1
 40
0.0
  9
$USERR2
 40
0.0
  9
$USERR3
 40
0.0
  9
$USERR4
 40
0.0
  9
$USERR5
 40
0.0
  9
$WORLDVIEW
 70
     1
  9
$SHADEDGE
 70
     3
  9
$SHADEDIF
 70
    70
  9
$TILEMODE
 70
     1
  9
$MAXACTVP
 70
    64
  9
$PINSBASE
 10
0.0
 20
0.0
 30
0.0
  9
$PLIMCHECK
 70
     0
  9
$PEXTMIN
 10
1.0000000000E+20
 20
1.0000000000E+20
 30
1.0000000000E+20
  9
$PEXTMAX
 10
-1.0000000000E+20
 20
-1.0000000000E+20
 30
-1.0000000000E+20
  9
$PLIMMIN
 10
0.0
 20
0.0
  9
$PLIMMAX
 10
420.0
 20
297.0
  9
$UNITMODE
 70
     0
  9
$VISRETAIN
 70
     1
  9
$PLINEGEN
 70
     0
  9
$PSLTSCALE
 70
     1
  9
$TREEDEPTH
 70
  3020
  9
$CMLSTYLE
  2
Standard
  9
$CMLJUST
 70
     0
  9
$CMLSCALE
 40
20.0
  9
$PROXYGRAPHICS
 70
     1
  9
$MEASUREMENT
 70
     1
  9
$CELWEIGHT
370
    -1
  9
$ENDCAPS
280
     0
  9
$JOINSTYLE
280
     0
  9
$LWDISPLAY
290
     1
  9
$INSUNITS
 70
     4
  9
$HYPERLINKBASE
  1

  9
$STYLESHEET
  1

  9
$XEDIT
290
     1
  9
$CEPSNTYPE
380
     0
  9
$PSTYLEMODE
290
     1
  9
$FINGERPRINTGUID
  2
{728d47e3-6d8d-4d6c-ab31-e4df22999f28}
  9
$VERSIONGUID
  2
{FAEB1C32-E019-11D5-929B-00C0DF256EC4}
  9
$EXTNAMES
290
     1
  9
$PSVPSCALE
 40
0.0
  9
$OLESTARTUP
290
     0
  0
ENDSEC
  0
SECTION
  2
CLASSES
  0
CLASS
  1
ACDBDICTIONARYWDFLT
  2
AcDbDictionaryWithDefault
  3
ObjectDBX Classes
 90
        0
280
     0
281
     0
  0
CLASS
  1
VISUALSTYLE
  2
AcDbVisualStyle
  3
ObjectDBX Classes
 90
     4095
280
     0
281
     0
  0
CLASS
  1
MATERIAL
  2
AcDbMaterial
  3
ObjectDBX Classes
 90
     1153
280
     0
281
     0
  0
CLASS
  1
SCALE
  2
AcDbScale
  3
ObjectDBX Classes
 90
     1153
280
     0
281
     0
  0
CLASS
  1
TABLESTYLE
  2
AcDbTableStyle
  3
ObjectDBX Classes
 90
     4095
280
     0
281
     0
  0
CLASS
  1
MLEADERSTYLE
  2
AcDbMLeaderStyle
  3
ACDB_MLEADERSTYLE_CLASS
 90
     4095
280
     0
281
     0
  0
CLASS
  1
SUN
  2
AcDbSun
  3
SCENEOE
 90
     1153
280
     0
281
     0
  0
CLASS
  1
ACDBPLACEHOLDER
  2
AcDbPlaceHolder
  3
ObjectDBX Classes
 90
        0
280
     0
281
     0
  0
CLASS
  1
LAYOUT
  2
AcDbLayout
  3
ObjectDBX Classes
 90
        0
280
     0
281
     0
  0
ENDSEC
  0
SECTION
  2
TABLES
  0
TABLE
  2
VPORT
  5
8
330
0
100
AcDbSymbolTable
 70
     1
  0
VPORT
  5
29
330
8
100
AcDbSymbolTableRecord
100
AcDbViewportTableRecord
  2
*Active
 70
     0
 10
0.0
 20
0.0
 11
1.0
 21
1.0
 12
139.7
 22
107.95
 13
0.0
 23
0.0
 14
10.0
 24
10.0
 15
10.0
 25
10.0
 16
0.0
 26
0.0
 36
1.0
 17
0.0
 27
0.0
 37
0.0
 40
215.9
 41
1.2941176471
 42
50.0
 43
0.0
 44
0.0
 50
0.0
 51
0.0
 71
     0
 72
  2000
 73
     1
 74
     3
 75
     0
 76
     0
 77
     0
 78
     0
281
     0
 65
     1
110
0.0
120
0.0
130
0.0
111
1.0
121
0.0
131
0.0
112
0.0
122
1.0
132
0.0
 79
     0
146
0.0
  0
ENDTAB
  0
TABLE
  2
LTYPE
  5
5
330
0
100
AcDbSymbolTable
 70
     6
  0
LTYPE
  5
14
330
5
100
AcDbSymbolTableRecord
100
AcDbLinetypeTableRecord
  2
ByBlock
 70
     0
  3

 72
    65
 73
     0
 40
0.0
  0
LTYPE
  5
15
330
5
100
AcDbSymbolTableRecord
100
AcDbLinetypeTableRecord
  2
ByLayer
 70
     0
  3

 72
    65
 73
     0
 40
0.0
  0
LTYPE
  5
16
330
5
100
AcDbSymbolTableRecord
100
AcDbLinetypeTableRecord
  2
Continuous
 70
     0
  3
Solid line
 72
    65
 73
     0
 40
0.0
  0
LTYPE
  5
6E
330
5
100
AcDbSymbolTableRecord
100
AcDbLinetypeTableRecord
  2
HIDDEN
 70
     0
  3
Hidden __ __ __ __ __ __ __ __ __ __ __ __ __ __
 72
    65
 73
     2
 40
1.905
 49
1.27
 74
     0
 49
-0.635
 74
     0
  0
LTYPE
  5
6F
330
5
100
AcDbSymbolTableRecord
100
AcDbLinetypeTableRecord
  2
PHANTOM
 70
     0
  3
Phantom ______  __  __  ______  __  __  ______
 72
    65
 73
     6
 40
12.7
 49
6.35
 74
     0
 49
-1.27
 74
     0
 49
1.27
 74
     0
 49
-1.27
 74
     0
 49
1.27
 74
     0
 49
-1.27
 74
     0
  0
LTYPE
  5
70
330
5
100
AcDbSymbolTableRecord
100
AcDbLinetypeTableRecord
  2
CENTER
 70
     0
  3
Center ____ _ ____ _ ____ _ ____ _ ____ _ ____
 72
    65
 73
     4
 40
10.16
 49
6.35
 74
     0
 49
-1.27
 74
     0
 49
1.27
 74
     0
 49
-1.27
 74
     0
  0
LTYPE
  5
71
330
5
100
AcDbSymbolTableRecord
100
AcDbLinetypeTableRecord
  2
CENTERX2
 70
     0
  3
Center (2x) ________  __  ________  __  _____
 72
    65
 73
     4
 40
20.32
 49
12.7
 74
     0
 49
-2.54
 74
     0
 49
2.54
 74
     0
 49
-2.54
 74
     0
  0
LTYPE
  5
72
330
5
100
AcDbSymbolTableRecord
100
AcDbLinetypeTableRecord
  2
DOT2
 70
     0
  3
Dot (.5x) ........................................
 72
    65
 73
     2
 40
0.635
 49
0.0
 74
     0
 49
-0.635
 74
     0
  0
ENDTAB
  0
TABLE
  2
LAYER
  5
2
330
0
100
AcDbSymbolTable
 70
    17
  0
LAYER
  5
10
330
2
100
AcDbSymbolTableRecord
100
AcDbLayerTableRecord
  2
0
 70
     0
 62
     7
  6
Continuous
370
    -3
390
F
  0
LAYER
  5
73
330
2
100
AcDbSymbolTableRecord
100
AcDbLayerTableRecord
  2
FORMAT
 70
     0
 62
     7
  6
Continuous
370
    -3
390
F
  0
LAYER
  5
74
330
2
100
AcDbSymbolTableRecord
100
AcDbLayerTableRecord
  2
YARDIMCI_GEOMETRI
 70
     0
 62
    -6
  6
Continuous
290
     0
370
    -3
390
F
  0
LAYER
  5
75
330
2
100
AcDbSymbolTableRecord
100
AcDbLayerTableRecord
  2
SAYFA_CERCEVESI
 70
     0
 62
     7
  6
Continuous
370
    25
390
F
  0
LAYER
  5
76
330
2
100
AcDbSymbolTableRecord
100
AcDbLayerTableRecord
  2
ANTET
 70
     0
 62
     7
  6
Continuous
370
    -3
390
F
  0
LAYER
  5
77
330
2
100
AcDbSymbolTableRecord
100
AcDbLayerTableRecord
  2
OLCU
 70
     0
 62
   150
  6
Continuous
370
    -3
390
F
  0
LAYER
  5
78
330
2
100
AcDbSymbolTableRecord
100
AcDbLayerTableRecord
  2
METIN
 70
     0
 62
    96
  6
Continuous
370
    -3
390
F
  0
LAYER
  5
79
330
2
100
AcDbSymbolTableRecord
100
AcDbLayerTableRecord
  2
BALON
 70
     0
 62
     5
  6
Continuous
370
    -3
390
F
  0
LAYER
  5
7A
330
2
100
AcDbSymbolTableRecord
100
AcDbLayerTableRecord
  2
VURGU
 70
     0
 62
     7
  6
Continuous
370
    -3
390
F
  0
LAYER
  5
7B
330
2
100
AcDbSymbolTableRecord
100
AcDbLayerTableRecord
  2
SILIK
 70
     0
 62
     7
  6
Continuous
370
    -3
390
F
  0
LAYER
  5
7C
330
2
100
AcDbSymbolTableRecord
100
AcDbLayerTableRecord
  2
MODEL
 70
     0
 62
     7
  6
Continuous
370
    -3
390
F
  0
LAYER
  5
7D
330
2
100
AcDbSymbolTableRecord
100
AcDbLayerTableRecord
  2
DETAYLANDıRMA
 70
     0
 62
   190
  6
Continuous
370
    -3
390
F
  0
LAYER
  5
7E
330
2
100
AcDbSymbolTableRecord
100
AcDbLayerTableRecord
  2
TOLERANS
 70
     0
 62
   230
  6
Continuous
370
    -3
390
F
  0
LAYER
  5
7F
330
2
100
AcDbSymbolTableRecord
100
AcDbLayerTableRecord
  2
MERKEZ_CIZGILERI
 70
     0
 62
    30
  6
Continuous
370
    -3
390
F
  0
LAYER
  5
80
330
2
100
AcDbSymbolTableRecord
100
AcDbLayerTableRecord
  2
KESIT-DETAY_CIZGILERI
 70
     0
 62
     7
  6
Continuous
370
    -3
390
F
  0
LAYER
  5
81
330
2
100
AcDbSymbolTableRecord
100
AcDbLayerTableRecord
  2
\U+041E\U+0421\U+0415\U+0412\U+042B\U+0415
 70
     0
 62
     7
  6
Continuous
370
    -3
390
F
  0
LAYER
  5
82
330
2
100
AcDbSymbolTableRecord
100
AcDbLayerTableRecord
  2
\U+0412\U+041E\U+0414\U+042F\U+041D\U+042B\U+0415_\U+0417\U+041D\U+0410\U+041A\U+0418
 70
     0
 62
    11
  6
Continuous
370
    -3
390
F
  0
ENDTAB
  0
TABLE
  2
STYLE
  5
3
330
0
100
AcDbSymbolTable
 70
     1
  0
STYLE
  5
11
330
3
100
AcDbSymbolTableRecord
100
AcDbTextStyleTableRecord
  2
Standard
 70
     0
 40
0.0
 41
1.0
 50
0.0
 71
     0
 42
3.5
  3
txt
  4

  0
ENDTAB
  0
TABLE
  2
VIEW
  5
6
330
0
100
AcDbSymbolTable
 70
     0
  0
ENDTAB
  0
TABLE
  2
UCS
  5
7
330
0
100
AcDbSymbolTable
 70
     0
  0
ENDTAB
  0
TABLE
  2
APPID
  5
9
330
0
100
AcDbSymbolTable
 70
     1
  0
APPID
  5
12
330
9
100
AcDbSymbolTableRecord
100
AcDbRegAppTableRecord
  2
ACAD
 70
     0
  0
ENDTAB
  0
TABLE
  2
DIMSTYLE
  5
A
330
0
100
AcDbSymbolTable
 70
     1
100
AcDbDimStyleTable
  0
DIMSTYLE
105
27
330
A
100
AcDbSymbolTableRecord
100
AcDbDimStyleTableRecord
  2
ISO-25
 70
     0
 41
2.5
 42
0.625
 43
3.75
 44
1.25
 73
     0
 74
     0
 77
     1
 78
     8
140
2.5
141
2.5
143
0.0393700787
147
0.625
171
     3
172
     1
178
     0
271
     2
272
     2
274
     3
278
    44
283
     0
284
     8
340
11
  0
ENDTAB
  0
TABLE
  2
BLOCK_RECORD
  5
1
330
0
100
AcDbSymbolTable
 70
     5
  0
BLOCK_RECORD
  5
1F
330
1
100
AcDbSymbolTableRecord
100
AcDbBlockTableRecord
  2
*Model_Space
340
22
  0
BLOCK_RECORD
  5
1B
330
1
100
AcDbSymbolTableRecord
100
AcDbBlockTableRecord
  2
*Paper_Space
340
1E
  0
BLOCK_RECORD
  5
23
330
1
100
AcDbSymbolTableRecord
100
AcDbBlockTableRecord
  2
*Paper_Space0
340
26
  0
BLOCK_RECORD
  5
8C
330
1
100
AcDbSymbolTableRecord
100
AcDbBlockTableRecord
  2
SW_CENTERMARKSYMBOL_0
340
0
102
{BLKREFS
331
97
102
}
  0
BLOCK_RECORD
  5
AA
330
1
100
AcDbSymbolTableRecord
100
AcDbBlockTableRecord
  2
SW_CENTERMARKSYMBOL_1
340
0
102
{BLKREFS
331
B5
102
}
  0
BLOCK_RECORD
  5
DA
330
1
100
AcDbSymbolTableRecord
100
AcDbBlockTableRecord
  2
SW_CENTERMARKSYMBOL_2
340
0
102
{BLKREFS
331
E5
102
}
  0
BLOCK_RECORD
  5
E6
330
1
100
AcDbSymbolTableRecord
100
AcDbBlockTableRecord
  2
SW_CENTERMARKSYMBOL_3
340
0
102
{BLKREFS
331
F1
102
}
  0
ENDTAB
  0
ENDSEC
  0
SECTION
  2
BLOCKS
  0
BLOCK
  5
20
330
1F
100
AcDbEntity
  8
0
100
AcDbBlockBegin
  2
*Model_Space
 70
     0
 10
0.0
 20
0.0
 30
0.0
  3
*Model_Space
  1

  0
ENDBLK
  5
21
330
1F
100
AcDbEntity
  8
0
100
AcDbBlockEnd
  0
BLOCK
  5
1C
330
1B
100
AcDbEntity
 67
     1
  8
0
100
AcDbBlockBegin
  2
*Paper_Space
 70
     0
 10
0.0
 20
0.0
 30
0.0
  3
*Paper_Space
  1

  0
ENDBLK
  5
1D
330
1B
100
AcDbEntity
 67
     1
  8
0
100
AcDbBlockEnd
  0
BLOCK
  5
24
330
23
100
AcDbEntity
  8
0
100
AcDbBlockBegin
  2
*Paper_Space0
 70
     0
 10
0.0
 20
0.0
 30
0.0
  3
*Paper_Space0
  1

  0
ENDBLK
  5
25
330
23
100
AcDbEntity
  8
0
100
AcDbBlockEnd
  0
BLOCK
  5
8D
330
8C
100
AcDbEntity
  8
0
100
AcDbBlockBegin
  2
SW_CENTERMARKSYMBOL_0
 70
     0
 10
0.0
 20
0.0
 30
0.0
  3
SW_CENTERMARKSYMBOL_0
  1

  0
LINE
  5
8F
330
8C
100
AcDbEntity
  8
FORMAT
 62
     0
100
AcDbLine
 10
0.0
 20
0.0
 30
0.0
 11
0.0
 21
2.5
 31
0.0
  0
LINE
  5
90
330
8C
100
AcDbEntity
  8
FORMAT
 62
     0
100
AcDbLine
 10
0.0
 20
0.0
 30
0.0
 11
-2.5
 21
0.0
 31
0.0
  0
LINE
  5
91
330
8C
100
AcDbEntity
  8
FORMAT
 62
     0
100
AcDbLine
 10
0.0
 20
0.0
 30
0.0
 11
0.0
 21
-2.5
 31
0.0
  0
LINE
  5
92
330
8C
100
AcDbEntity
  8
FORMAT
 62
     0
100
AcDbLine
 10
0.0
 20
0.0
 30
0.0
 11
2.5
 21
0.0
 31
0.0
  0
LINE
  5
93
330
8C
100
AcDbEntity
  8
FORMAT
 62
     0
100
AcDbLine
 10
0.0
 20
5.0
 30
0.0
 11
0.0
 21
50.0
 31
0.0
  0
LINE
  5
94
330
8C
100
AcDbEntity
  8
FORMAT
 62
     0
100
AcDbLine
 10
-5.0
 20
0.0
 30
0.0
 11
-50.0
 21
0.0
 31
0.0
  0
LINE
  5
95
330
8C
100
AcDbEntity
  8
FORMAT
 62
     0
100
AcDbLine
 10
0.0
 20
-5.0
 30
0.0
 11
0.0
 21
-50.0
 31
0.0
  0
LINE
  5
96
330
8C
100
AcDbEntity
  8
FORMAT
 62
     0
100
AcDbLine
 10
5.0
 20
0.0
 30
0.0
 11
50.0
 21
0.0
 31
0.0
  0
ENDBLK
  5
8E
330
8C
100
AcDbEntity
  8
0
100
AcDbBlockEnd
  0
BLOCK
  5
AB
330
AA
100
AcDbEntity
  8
0
100
AcDbBlockBegin
  2
SW_CENTERMARKSYMBOL_1
 70
     0
 10
0.0
 20
0.0
 30
0.0
  3
SW_CENTERMARKSYMBOL_1
  1

  0
LINE
  5
AD
330
AA
100
AcDbEntity
  8
FORMAT
 62
     0
100
AcDbLine
 10
0.0
 20
0.0
 30
0.0
 11
0.0
 21
2.5
 31
0.0
  0
LINE
  5
AE
330
AA
100
AcDbEntity
  8
FORMAT
 62
     0
100
AcDbLine
 10
0.0
 20
0.0
 30
0.0
 11
-2.5
 21
0.0
 31
0.0
  0
LINE
  5
AF
330
AA
100
AcDbEntity
  8
FORMAT
 62
     0
100
AcDbLine
 10
0.0
 20
0.0
 30
0.0
 11
0.0
 21
-2.5
 31
0.0
  0
LINE
  5
B0
330
AA
100
AcDbEntity
  8
FORMAT
 62
     0
100
AcDbLine
 10
0.0
 20
0.0
 30
0.0
 11
2.5
 21
0.0
 31
0.0
  0
LINE
  5
B1
330
AA
100
AcDbEntity
  8
FORMAT
 62
     0
100
AcDbLine
 10
0.0
 20
5.0
 30
0.0
 11
0.0
 21
40.0
 31
0.0
  0
LINE
  5
B2
330
AA
100
AcDbEntity
  8
FORMAT
 62
     0
100
AcDbLine
 10
-5.0
 20
0.0
 30
0.0
 11
-40.0
 21
0.0
 31
0.0
  0
LINE
  5
B3
330
AA
100
AcDbEntity
  8
FORMAT
 62
     0
100
AcDbLine
 10
0.0
 20
-5.0
 30
0.0
 11
0.0
 21
-40.0
 31
0.0
  0
LINE
  5
B4
330
AA
100
AcDbEntity
  8
FORMAT
 62
     0
100
AcDbLine
 10
5.0
 20
0.0
 30
0.0
 11
40.0
 21
0.0
 31
0.0
  0
ENDBLK
  5
AC
330
AA
100
AcDbEntity
  8
0
100
AcDbBlockEnd
  0
BLOCK
  5
DB
330
DA
100
AcDbEntity
  8
0
100
AcDbBlockBegin
  2
SW_CENTERMARKSYMBOL_2
 70
     0
 10
0.0
 20
0.0
 30
0.0
  3
SW_CENTERMARKSYMBOL_2
  1

  0
LINE
  5
DD
330
DA
100
AcDbEntity
  8
FORMAT
 62
     0
100
AcDbLine
 10
0.0
 20
0.0
 30
0.0
 11
0.0
 21
2.5
 31
0.0
  0
LINE
  5
DE
330
DA
100
AcDbEntity
  8
FORMAT
 62
     0
100
AcDbLine
 10
0.0
 20
0.0
 30
0.0
 11
-2.5
 21
0.0
 31
0.0
  0
LINE
  5
DF
330
DA
100
AcDbEntity
  8
FORMAT
 62
     0
100
AcDbLine
 10
0.0
 20
0.0
 30
0.0
 11
0.0
 21
-2.5
 31
0.0
  0
LINE
  5
E0
330
DA
100
AcDbEntity
  8
FORMAT
 62
     0
100
AcDbLine
 10
0.0
 20
0.0
 30
0.0
 11
2.5
 21
0.0
 31
0.0
  0
LINE
  5
E1
330
DA
100
AcDbEntity
  8
FORMAT
 62
     0
100
AcDbLine
 10
0.0
 20
5.0
 30
0.0
 11
0.0
 21
9.5
 31
0.0
  0
LINE
  5
E2
330
DA
100
AcDbEntity
  8
FORMAT
 62
     0
100
AcDbLine
 10
-5.0
 20
0.0
 30
0.0
 11
-9.5
 21
0.0
 31
0.0
  0
LINE
  5
E3
330
DA
100
AcDbEntity
  8
FORMAT
 62
     0
100
AcDbLine
 10
0.0
 20
-5.0
 30
0.0
 11
0.0
 21
-9.5
 31
0.0
  0
LINE
  5
E4
330
DA
100
AcDbEntity
  8
FORMAT
 62
     0
100
AcDbLine
 10
5.0
 20
0.0
 30
0.0
 11
9.5
 21
0.0
 31
0.0
  0
ENDBLK
  5
DC
330
DA
100
AcDbEntity
  8
0
100
AcDbBlockEnd
  0
BLOCK
  5
E7
330
E6
100
AcDbEntity
  8
0
100
AcDbBlockBegin
  2
SW_CENTERMARKSYMBOL_3
 70
     0
 10
0.0
 20
0.0
 30
0.0
  3
SW_CENTERMARKSYMBOL_3
  1

  0
LINE
  5
E9
330
E6
100
AcDbEntity
  8
FORMAT
 62
     0
100
AcDbLine
 10
0.0
 20
0.0
 30
0.0
 11
0.0
 21
2.5
 31
0.0
  0
LINE
  5
EA
330
E6
100
AcDbEntity
  8
FORMAT
 62
     0
100
AcDbLine
 10
0.0
 20
0.0
 30
0.0
 11
-2.5
 21
0.0
 31
0.0
  0
LINE
  5
EB
330
E6
100
AcDbEntity
  8
FORMAT
 62
     0
100
AcDbLine
 10
0.0
 20
0.0
 30
0.0
 11
0.0
 21
-2.5
 31
0.0
  0
LINE
  5
EC
330
E6
100
AcDbEntity
  8
FORMAT
 62
     0
100
AcDbLine
 10
0.0
 20
0.0
 30
0.0
 11
2.5
 21
0.0
 31
0.0
  0
LINE
  5
ED
330
E6
100
AcDbEntity
  8
FORMAT
 62
     0
100
AcDbLine
 10
0.0
 20
5.0
 30
0.0
 11
0.0
 21
9.5
 31
0.0
  0
LINE
  5
EE
330
E6
100
AcDbEntity
  8
FORMAT
 62
     0
100
AcDbLine
 10
-5.0
 20
0.0
 30
0.0
 11
-9.5
 21
0.0
 31
0.0
  0
LINE
  5
EF
330
E6
100
AcDbEntity
  8
FORMAT
 62
     0
100
AcDbLine
 10
0.0
 20
-5.0
 30
0.0
 11
0.0
 21
-9.5
 31
0.0
  0
LINE
  5
F0
330
E6
100
AcDbEntity
  8
FORMAT
 62
     0
100
AcDbLine
 10
5.0
 20
0.0
 30
0.0
 11
9.5
 21
0.0
 31
0.0
  0
ENDBLK
  5
E8
330
E6
100
AcDbEntity
  8
0
100
AcDbBlockEnd
  0
ENDSEC
  0
SECTION
  2
ENTITIES
  0
LINE
  5
83
330
1F
100
AcDbEntity
  8
0
  6
Continuous
 62
     7
370
    25
100
AcDbLine
 10
121.3295369748
 20
158.5162652833
 30
0.0
 11
121.3295369748
 21
196.0314365546
 31
0.0
  0
LINE
  5
84
330
1F
100
AcDbEntity
  8
0
  6
Continuous
 62
     7
370
    25
100
AcDbLine
 10
107.3295369748
 20
196.0314365546
 30
0.0
 11
107.3295369748
 21
158.5133418975
 31
0.0
  0
LINE
  5
85
330
1F
100
AcDbEntity
  8
0
  6
Continuous
 62
     7
370
    25
100
AcDbLine
 10
143.4926288089
 20
74.0314365546
 30
0.0
 11
243.3295369748
 21
74.0314365546
 31
0.0
  0
LINE
  5
86
330
1F
100
AcDbEntity
  8
0
  6
Continuous
 62
     7
370
    25
100
AcDbLine
 10
243.3295369748
 20
149.0314365546
 30
0.0
 11
143.509369221
 21
149.0314365546
 31
0.0
  0
CIRCLE
  5
87
330
1F
100
AcDbEntity
  8
0
  6
Continuous
 62
     7
370
    25
100
AcDbCircle
 10
114.3295369748
 20
111.5314365546
 30
0.0
 40
37.5
  0
CIRCLE
  5
88
330
1F
100
AcDbEntity
  8
0
  6
Continuous
 62
     7
370
    25
100
AcDbCircle
 10
114.3295369748
 20
111.5314365546
 30
0.0
 40
47.5
  0
LINE
  5
89
330
1F
100
AcDbEntity
  8
0
  6
Continuous
 62
     7
370
    25
100
AcDbLine
 10
114.3295369748
 20
196.0314365546
 30
0.0
 11
107.3295369748
 21
196.0314365546
 31
0.0
  0
LINE
  5
8A
330
1F
100
AcDbEntity
  8
0
  6
Continuous
 62
     7
370
    25
100
AcDbLine
 10
121.3295369748
 20
196.0314365546
 30
0.0
 11
114.3295369748
 21
196.0314365546
 31
0.0
  0
LINE
  5
8B
330
1F
100
AcDbEntity
  8
0
  6
Continuous
 62
     7
370
    25
100
AcDbLine
 10
243.3295369748
 20
149.0314365546
 30
0.0
 11
243.3295369748
 21
74.0314365546
 31
0.0
  0
INSERT
  5
97
330
1F
100
AcDbEntity
  8
FORMAT
 62
     7
100
AcDbBlockReference
  2
SW_CENTERMARKSYMBOL_0
 10
114.3295369748
 20
111.5314365546
 30
0.0
  0
LINE
  5
98
330
1F
100
AcDbEntity
  8
0
  6
Continuous
 62
     7
370
    25
100
AcDbLine
 10
-230.1914570627
 20
159.0314365546
 30
0.0
 11
-231.2115123435
 21
159.0314365546
 31
0.0
  0
LINE
  5
99
330
1F
100
AcDbEntity
  8
0
  6
Continuous
 62
     7
370
    25
100
AcDbLine
 10
-57.1914570627
 20
159.0314365546
 30
0.0
 11
-216.2115123435
 21
159.0314365546
 31
0.0
  0
LINE
  5
9A
330
1F
100
AcDbEntity
  8
0
  6
Continuous
 62
     7
370
    25
100
AcDbLine
 10
-42.2115123435
 20
159.0314365546
 30
0.0
 11
-43.2115123435
 21
159.0314365546
 31
0.0
  0
LINE
  5
9B
330
1F
100
AcDbEntity
  8
0
  6
Continuous
 62
     7
370
    25
100
AcDbLine
 10
-231.2115123435
 20
64.0314365546
 30
0.0
 11
-42.2115123435
 21
64.0314365546
 31
0.0
  0
LINE
  5
9C
330
1F
100
AcDbEntity
  8
0
  6
Continuous
 62
     7
370
    25
100
AcDbLine
 10
-43.2115123435
 20
159.0314365546
 30
0.0
 11
-43.2115123435
 21
196.0314365546
 31
0.0
  0
LINE
  5
9D
330
1F
100
AcDbEntity
  8
0
  6
Continuous
 62
     7
370
    25
100
AcDbLine
 10
-57.2115123435
 20
196.0314365546
 30
0.0
 11
-57.2115123435
 21
159.0284915337
 31
0.0
  0
LINE
  5
9E
330
1F
100
AcDbEntity
  8
0
  6
Continuous
 62
     7
370
    25
100
AcDbLine
 10
-216.2115123435
 20
159.0314365546
 30
0.0
 11
-216.2115123435
 21
196.0314365546
 31
0.0
  0
LINE
  5
9F
330
1F
100
AcDbEntity
  8
0
  6
Continuous
 62
     7
370
    25
100
AcDbLine
 10
-230.2115123435
 20
196.0314365546
 30
0.0
 11
-230.2115123435
 21
159.0284915337
 31
0.0
  0
CIRCLE
  5
A0
330
1F
100
AcDbEntity
  8
0
  6
Continuous
 62
     7
370
    25
100
AcDbCircle
 10
-136.7115123435
 20
111.5314365546
 30
0.0
 40
30.7
  0
CIRCLE
  5
A1
330
1F
100
AcDbEntity
  8
0
  6
Continuous
 62
     7
370
    25
100
AcDbCircle
 10
-136.7115123435
 20
111.5314365546
 30
0.0
 40
37.50000000000001
  0
LINE
  5
A2
330
1F
100
AcDbEntity
  8
0
  6
Continuous
 62
     7
370
    25
100
AcDbLine
 10
-231.2115123435
 20
111.5314365546
 30
0.0
 11
-231.2115123435
 21
159.0314365546
 31
0.0
  0
LINE
  5
A3
330
1F
100
AcDbEntity
  8
0
  6
Continuous
 62
     7
370
    25
100
AcDbLine
 10
-231.2115123435
 20
64.0314365546
 30
0.0
 11
-231.2115123435
 21
111.5314365546
 31
0.0
  0
LINE
  5
A4
330
1F
100
AcDbEntity
  8
0
  6
Continuous
 62
     7
370
    25
100
AcDbLine
 10
-42.2115123435
 20
111.5314365546
 30
0.0
 11
-42.2115123435
 21
159.0314365546
 31
0.0
  0
LINE
  5
A5
330
1F
100
AcDbEntity
  8
0
  6
Continuous
 62
     7
370
    25
100
AcDbLine
 10
-42.2115123435
 20
64.0314365546
 30
0.0
 11
-42.2115123435
 21
111.5314365546
 31
0.0
  0
SPLINE
  5
A6
330
1F
100
AcDbEntity
  8
0
  6
Continuous
 62
     7
370
    25
100
AcDbSpline
210
0.0
220
0.0
230
1.0
 70
     8
 71
     3
 72
    26
 73
    22
 74
     0
 42
0.00000001
 43
0.00000001
 40
0.0
 40
0.0
 40
0.0
 40
0.0
 40
0.052534292874072
 40
0.1066020916785307
 40
0.1591335643828935
 40
0.2131694025996681
 40
0.2660512289558779
 40
0.3204515209699024
 40
0.3735665740559295
 40
0.4282432127719691
 40
0.4809694228364577
 40
0.5352495261412448
 40
0.5875705803636242
 40
0.6413986863443153
 40
0.6939299037379215
 40
0.7479559796806495
 40
0.8009830330923632
 40
0.8555450911426036
 40
0.9085851926916999
 40
0.9631913054878208
 40
1.0
 40
1.0
 40
1.0
 40
1.0
 10
-43.21151234345388
 20
159.0314365546218
 30
0.0
 10
-43.22998573777823
 20
159.0286962158857
 30
0.0
 10
-43.26747177532896
 20
159.023135546365
 30
0.0
 10
-43.56888203166861
 20
158.9795693949924
 30
0.0
 10
-44.04521919296874
 20
158.9146803744474
 30
0.0
 10
-44.69324158734772
 20
158.8339271453237
 30
0.0
 10
-45.50301998219432
 20
158.7454928187655
 30
0.0
 10
-46.44156921379877
 20
158.6603014870573
 30
0.0
 10
-47.49856945471092
 20
158.5868308816137
 30
0.0
 10
-48.62329992865429
 20
158.5349063711512
 30
0.0
 10
-49.80176734216088
 20
158.5096485136952
 30
0.0
 10
-50.97540920141551
 20
158.514155251742
 30
0.0
 10
-52.13450134392594
 20
158.5476423962669
 30
0.0
 10
-53.22728190962085
 20
158.6055511480635
 30
0.0
 10
-54.2459639257511
 20
158.6824661211673
 30
0.0
 10
-55.1471973738812
 20
158.7689193509742
 30
0.0
 10
-55.91938221842234
 20
158.8566035503383
 30
0.0
 10
-56.5280161487623
 20
158.9346304529945
 30
0.0
 10
-56.95490400188282
 20
158.9939052989057
 30
0.0
 10
-57.18742167731843
 20
159.0278732875251
 30
0.0
 10
-57.19029863800098
 20
159.0283117944414
 30
0.0
 10
-57.19145706265888
 20
159.0284883617569
 30
0.0
  0
SPLINE
  5
A7
330
1F
100
AcDbEntity
  8
0
  6
Continuous
 62
     7
370
    25
100
AcDbSpline
210
0.0
220
0.0
230
1.0
 70
     8
 71
     3
 72
    26
 73
    22
 74
     0
 42
0.00000001
 43
0.00000001
 40
0.0
 40
0.0
 40
0.0
 40
0.0
 40
0.052534292874072
 40
0.1066020916785307
 40
0.1591335643828935
 40
0.2131694025996682
 40
0.266051228955878
 40
0.3204515209699025
 40
0.3735665740559296
 40
0.4282432127719692
 40
0.4809694228364578
 40
0.535249526141245
 40
0.5875705803636244
 40
0.6413986863443154
 40
0.6939299037379216
 40
0.7479559796806498
 40
0.8009830330923634
 40
0.8555450911426039
 40
0.9085851926917001
 40
0.9631913054878212
 40
1.0
 40
1.0
 40
1.0
 40
1.0
 10
-216.2115123434539
 20
159.0314365546218
 30
0.0
 10
-216.2299857377782
 20
159.0286962158857
 30
0.0
 10
-216.2674717753289
 20
159.023135546365
 30
0.0
 10
-216.5688820316686
 20
158.9795693949924
 30
0.0
 10
-217.0452191929687
 20
158.9146803744474
 30
0.0
 10
-217.6932415873477
 20
158.8339271453237
 30
0.0
 10
-218.5030199821943
 20
158.7454928187654
 30
0.0
 10
-219.4415692137988
 20
158.6603014870573
 30
0.0
 10
-220.4985694547109
 20
158.5868308816137
 30
0.0
 10
-221.6232999286543
 20
158.5349063711512
 30
0.0
 10
-222.8017673421608
 20
158.5096485136952
 30
0.0
 10
-223.9754092014155
 20
158.514155251742
 30
0.0
 10
-225.1345013439259
 20
158.5476423962669
 30
0.0
 10
-226.2272819096208
 20
158.6055511480635
 30
0.0
 10
-227.2459639257511
 20
158.6824661211673
 30
0.0
 10
-228.1471973738812
 20
158.7689193509742
 30
0.0
 10
-228.9193822184223
 20
158.8566035503383
 30
0.0
 10
-229.5280161487623
 20
158.9346304529945
 30
0.0
 10
-229.9549040018828
 20
158.9939052989057
 30
0.0
 10
-230.1874216773185
 20
159.0278732875251
 30
0.0
 10
-230.1902986380009
 20
159.0283117944414
 30
0.0
 10
-230.1914570626589
 20
159.0284883617569
 30
0.0
  0
LINE
  5
A8
330
1F
100
AcDbEntity
  8
0
  6
Continuous
 62
     7
370
    25
100
AcDbLine
 10
-43.2115123435
 20
196.0314365546
 30
0.0
 11
-57.2115123435
 21
196.0314365546
 31
0.0
  0
LINE
  5
A9
330
1F
100
AcDbEntity
  8
0
  6
Continuous
 62
     7
370
    25
100
AcDbLine
 10
-216.2115123435
 20
196.0314365546
 30
0.0
 11
-230.2115123435
 21
196.0314365546
 31
0.0
  0
INSERT
  5
B5
330
1F
100
AcDbEntity
  8
FORMAT
 62
     7
100
AcDbBlockReference
  2
SW_CENTERMARKSYMBOL_1
 10
-136.7115123435
 20
111.5314365546
 30
0.0
  0
LINE
  5
B6
330
1F
100
AcDbEntity
  8
0
  6
Continuous
 62
     7
370
    25
100
AcDbLine
 10
161.8295369748
 20
380.9831069901
 30
0.0
 11
161.8295369748
 21
437.9831069901
 31
0.0
  0
LINE
  5
B7
330
1F
100
AcDbEntity
  8
0
  6
Continuous
 62
     7
370
    25
100
AcDbLine
 10
161.8295369748
 20
248.9831069901
 30
0.0
 11
161.8295369748
 21
305.9928977348
 31
0.0
  0
LINE
  5
B8
330
1F
100
AcDbEntity
  8
0
  6
Continuous
 62
     7
370
    25
100
AcDbLine
 10
66.8295369748
 20
437.9831069901
 30
0.0
 11
66.8295369748
 21
248.9831069901
 31
0.0
  0
LINE
  5
B9
330
1F
100
AcDbEntity
  8
0
  6
Continuous
 62
     7
370
    25
100
AcDbLine
 10
161.8218083088
 20
305.9831069901
 30
0.0
 11
243.3295369748
 21
305.9831069901
 31
0.0
  0
LINE
  5
BA
330
1F
100
AcDbEntity
  8
0
  6
Continuous
 62
     7
370
    25
100
AcDbLine
 10
243.3295369748
 20
380.9831069901
 30
0.0
 11
161.8295369748
 21
380.9831069901
 31
0.0
  0
SPLINE
  5
BB
330
1F
100
AcDbEntity
  8
0
  6
Continuous
 62
     7
370
    25
100
AcDbSpline
210
0.0
220
0.0
230
1.0
 70
     8
 71
     3
 72
    48
 73
    44
 74
     0
 42
0.00000001
 43
0.00000001
 40
0.0
 40
0.0
 40
0.0
 40
0.0
 40
0.0214379337767228
 40
0.042876530612883
 40
0.0650283764420663
 40
0.0871821531033825
 40
0.1085965686355295
 40
0.1300130347538646
 40
0.1519516656599628
 40
0.1738923543218349
 40
0.202605517422787
 40
0.2313229409443959
 40
0.260862096971805
 40
0.290403016888286
 40
0.3195184889891429
 40
0.3486311719169484
 40
0.3786356527796932
 40
0.408626467282671
 40
0.4426137139527977
 40
0.4600346848002729
 40
0.4774527695632674
 40
0.5114994198056887
 40
0.5291336504251605
 40
0.5467703918384526
 40
0.5668723338978147
 40
0.5869797099090284
 40
0.6076450328323176
 40
0.6283142347924122
 40
0.6577028992261315
 40
0.6870973642919161
 40
0.7173142353087644
 40
0.7475307467769735
 40
0.7774361036319215
 40
0.8073374424891921
 40
0.8382765005957346
 40
0.8692078376143096
 40
0.8904025016042898
 40
0.9115951974975665
 40
0.933370132004801
 40
0.9551432364188812
 40
0.9763621352058246
 40
0.9975803354967678
 40
1.0
 40
1.0
 40
1.0
 40
1.0
 10
161.8295369747899
 20
380.983106990103
 30
0.0
 10
161.8149220634203
 20
380.9646286379801
 30
0.0
 10
161.7856917886528
 20
380.9276713622127
 30
0.0
 10
161.5513660190608
 20
380.6303363227789
 30
0.0
 10
161.1750435634186
 20
380.1512143147336
 30
0.0
 10
160.6542451628364
 20
379.4838049257835
 30
0.0
 10
160.0112396265512
 20
378.6531453686581
 30
0.0
 10
159.2575968845624
 20
377.6691521690966
 30
0.0
 10
158.3947018071005
 20
376.5279347683442
 30
0.0
 10
157.336215772768
 20
375.1049249523262
 30
0.0
 10
156.0717556961207
 20
373.3673912736027
 30
0.0
 10
154.5874622684698
 20
371.259679861902
 30
0.0
 10
153.0186722327049
 20
368.9389618040649
 30
0.0
 10
151.4087131515296
 20
366.4227974316352
 30
0.0
 10
149.8082723715929
 20
363.7435303201535
 30
0.0
 10
148.2465864451534
 20
360.8756003586158
 30
0.0
 10
146.7668040603096
 20
357.7994316021302
 30
0.0
 10
145.3862880112389
 20
354.3595828499601
 30
0.0
 10
144.4366015395333
 20
351.2004763108661
 30
0.0
 10
143.8771632097881
 20
348.4317957268557
 30
0.0
 10
143.5019864985762
 20
345.6095897145192
 30
0.0
 10
143.4325316017577
 20
342.7234512498065
 30
0.0
 10
143.6828523689178
 20
339.8604530543339
 30
0.0
 10
144.0424092651396
 20
337.6050534182859
 30
0.0
 10
144.582030423852
 20
335.3029393558691
 30
0.0
 10
145.3015084153512
 20
332.9543220726259
 30
0.0
 10
146.1541127706269
 20
330.6675826593323
 30
0.0
 10
147.2486976551137
 20
328.1364932565456
 30
0.0
 10
148.5910401966148
 20
325.4292587264815
 30
0.0
 10
150.1824170120753
 20
322.5762214698574
 30
0.0
 10
151.8238579094105
 20
319.8768662392076
 30
0.0
 10
153.4683505570859
 20
317.3505687554659
 30
0.0
 10
155.0586838515795
 20
315.0275103346938
 30
0.0
 10
156.5786578201427
 20
312.8950422029362
 30
0.0
 10
157.9906057653348
 20
310.9747857003136
 30
0.0
 10
159.1204094079308
 20
309.4765623447107
 30
0.0
 10
159.9782815991222
 20
308.3558865334183
 30
0.0
 10
160.6196433064094
 20
307.5269521624241
 30
0.0
 10
161.1397126229411
 20
306.8601297388014
 30
0.0
 10
161.5278276955996
 20
306.3658113343171
 30
0.0
 10
161.7526212462461
 20
306.0804236251977
 30
0.0
 10
161.8489643212805
 20
305.9585065920094
 30
0.0
 10
161.8243278345462
 20
305.9897042229906
 30
0.0
 10
161.8218059471865
 20
305.9928977347958
 30
0.0
  0
LINE
  5
BC
330
1F
100
AcDbEntity
  8
0
  6
Continuous
 62
     7
370
    25
100
AcDbLine
 10
66.8295369748
 20
437.9831069901
 30
0.0
 11
161.8295369748
 21
437.9831069901
 31
0.0
  0
LINE
  5
BD
330
1F
100
AcDbEntity
  8
0
  6
Continuous
 62
     7
370
    25
100
AcDbLine
 10
66.8295369748
 20
248.9831069901
 30
0.0
 11
161.8295369748
 21
248.9831069901
 31
0.0
  0
LINE
  5
BE
330
1F
100
AcDbEntity
  8
0
  6
Continuous
 62
     7
370
    25
100
AcDbLine
 10
243.3295369748
 20
380.9831069901
 30
0.0
 11
243.3295369748
 21
305.9831069901
 31
0.0
  0
LINE
  5
BF
330
1F
100
AcDbEntity
  8
0
  6
Continuous
 62
     7
370
    25
100
AcDbLine
 10
306.513678562
 20
64.0314365546
 30
0.0
 11
495.513678562
 21
64.0314365546
 31
0.0
  0
LINE
  5
C0
330
1F
100
AcDbEntity
  8
0
  6
Continuous
 62
     7
370
    25
100
AcDbLine
 10
307.513678562
 20
159.0314365546
 30
0.0
 11
306.513678562
 21
159.0314365546
 31
0.0
  0
LINE
  5
C1
330
1F
100
AcDbEntity
  8
0
  6
Continuous
 62
     7
370
    25
100
AcDbLine
 10
480.513678562
 20
159.0314365546
 30
0.0
 11
321.4936232812
 21
159.0314365546
 31
0.0
  0
LINE
  5
C2
330
1F
100
AcDbEntity
  8
0
  6
Continuous
 62
     7
370
    25
100
AcDbLine
 10
495.513678562
 20
159.0314365546
 30
0.0
 11
494.4936232812
 21
159.0314365546
 31
0.0
  0
LINE
  5
C3
330
1F
100
AcDbEntity
  8
0
  6
Continuous
 62
     7
370
    25
100
AcDbLine
 10
321.513678562
 20
159.0284915337
 30
0.0
 11
321.513678562
 21
196.0314365546
 31
0.0
  0
LINE
  5
C4
330
1F
100
AcDbEntity
  8
0
  6
Continuous
 62
     7
370
    25
100
AcDbLine
 10
307.513678562
 20
196.0314365546
 30
0.0
 11
307.513678562
 21
159.0314365546
 31
0.0
  0
LINE
  5
C5
330
1F
100
AcDbEntity
  8
0
  6
Continuous
 62
     7
370
    25
100
AcDbLine
 10
494.513678562
 20
159.0284915337
 30
0.0
 11
494.513678562
 21
196.0314365546
 31
0.0
  0
LINE
  5
C6
330
1F
100
AcDbEntity
  8
0
  6
Continuous
 62
     7
370
    25
100
AcDbLine
 10
480.513678562
 20
196.0314365546
 30
0.0
 11
480.513678562
 21
159.0314365546
 31
0.0
  0
LINE
  5
C7
330
1F
100
AcDbEntity
  8
0
  6
Continuous
 62
     7
370
    25
100
AcDbLine
 10
495.513678562
 20
159.0314365546
 30
0.0
 11
495.513678562
 21
64.0314365546
 31
0.0
  0
LINE
  5
C8
330
1F
100
AcDbEntity
  8
0
  6
Continuous
 62
     7
370
    25
100
AcDbLine
 10
306.513678562
 20
159.0314365546
 30
0.0
 11
306.513678562
 21
64.0314365546
 31
0.0
  0
SPLINE
  5
C9
330
1F
100
AcDbEntity
  8
0
  6
Continuous
 62
     7
370
    25
100
AcDbSpline
210
0.0
220
0.0
230
1.0
 70
     8
 71
     3
 72
    26
 73
    22
 74
     0
 42
0.00000001
 43
0.00000001
 40
0.0
 40
0.0
 40
0.0
 40
0.0
 40
0.0157462028048526
 40
0.0698417494472365
 40
0.1221715240062861
 40
0.1759988559773452
 40
0.2287015860781941
 40
0.2829084575728387
 40
0.336017345730802
 40
0.3906758000504891
 40
0.4435887154121377
 40
0.4980657705789773
 40
0.550476737436427
 40
0.6044108188968218
 40
0.656800631706339
 40
0.7106825623096346
 40
0.7635599824037883
 40
0.8179553096785127
 40
0.8710736569686737
 40
0.9257531215792384
 40
1.0
 40
1.0
 40
1.0
 40
1.0
 10
321.4936232811841
 20
159.0284883617569
 30
0.0
 10
321.4993715385839
 20
159.0293332507481
 30
0.0
 10
321.5248677396709
 20
159.0330807272647
 30
0.0
 10
321.3714954121481
 20
159.0104647138756
 30
0.0
 10
321.0320804374063
 20
158.9622339472466
 30
0.0
 10
320.5013950769169
 20
158.8915226999941
 30
0.0
 10
319.8010579514817
 20
158.8073306545095
 30
0.0
 10
318.9547007141699
 20
158.7192977734456
 30
0.0
 10
317.9719362055807
 20
158.6361634300467
 30
0.0
 10
316.8974603961258
 20
158.5688261381436
 30
0.0
 10
315.7451334301138
 20
158.5241101472021
 30
0.0
 10
314.5727121955777
 20
158.5078909340455
 30
0.0
 10
313.3918131036042
 20
158.5214267918451
 30
0.0
 10
312.2575122039158
 20
158.562589478099
 30
0.0
 10
311.1773993550878
 20
158.627366332178
 30
0.0
 10
310.1972639652487
 20
158.7076747705161
 30
0.0
 10
309.3273545574875
 20
158.7959795875524
 30
0.0
 10
308.6058776347195
 20
158.8814124030954
 30
0.0
 10
308.0492318286471
 20
158.9546860835665
 30
0.0
 10
307.6129550410869
 20
159.0165961494896
 30
0.0
 10
307.5499577951461
 20
159.0260133312871
 30
0.0
 10
307.5136785619791
 20
159.0314365546218
 30
0.0
  0
SPLINE
  5
CA
330
1F
100
AcDbEntity
  8
0
  6
Continuous
 62
     7
370
    25
100
AcDbSpline
210
0.0
220
0.0
230
1.0
 70
     8
 71
     3
 72
    26
 73
    22
 74
     0
 42
0.00000001
 43
0.00000001
 40
0.0
 40
0.0
 40
0.0
 40
0.0
 40
0.0157462028048526
 40
0.0698417494472365
 40
0.1221715240062861
 40
0.1759988559773452
 40
0.2287015860781941
 40
0.2829084575728387
 40
0.336017345730802
 40
0.3906758000504891
 40
0.4435887154121377
 40
0.4980657705789773
 40
0.550476737436427
 40
0.6044108188968218
 40
0.656800631706339
 40
0.7106825623096346
 40
0.7635599824037883
 40
0.8179553096785127
 40
0.8710736569686737
 40
0.9257531215792384
 40
1.0
 40
1.0
 40
1.0
 40
1.0
 10
494.4936232811841
 20
159.0284883617569
 30
0.0
 10
494.4993715385838
 20
159.0293332507481
 30
0.0
 10
494.524867739671
 20
159.0330807272647
 30
0.0
 10
494.3714954121481
 20
159.0104647138756
 30
0.0
 10
494.0320804374063
 20
158.9622339472466
 30
0.0
 10
493.5013950769169
 20
158.8915226999941
 30
0.0
 10
492.8010579514818
 20
158.8073306545095
 30
0.0
 10
491.9547007141697
 20
158.7192977734456
 30
0.0
 10
490.9719362055808
 20
158.6361634300467
 30
0.0
 10
489.8974603961257
 20
158.5688261381436
 30
0.0
 10
488.7451334301138
 20
158.5241101472021
 30
0.0
 10
487.5727121955778
 20
158.5078909340455
 30
0.0
 10
486.3918131036042
 20
158.5214267918451
 30
0.0
 10
485.2575122039158
 20
158.562589478099
 30
0.0
 10
484.1773993550879
 20
158.627366332178
 30
0.0
 10
483.1972639652486
 20
158.7076747705161
 30
0.0
 10
482.3273545574875
 20
158.7959795875524
 30
0.0
 10
481.6058776347194
 20
158.8814124030954
 30
0.0
 10
481.0492318286471
 20
158.9546860835665
 30
0.0
 10
480.6129550410869
 20
159.0165961494896
 30
0.0
 10
480.5499577951462
 20
159.0260133312871
 30
0.0
 10
480.5136785619791
 20
159.0314365546218
 30
0.0
  0
LINE
  5
CB
330
1F
100
AcDbEntity
  8
0
  6
Continuous
 62
     7
370
    25
100
AcDbLine
 10
321.513678562
 20
196.0314365546
 30
0.0
 11
307.513678562
 21
196.0314365546
 31
0.0
  0
LINE
  5
CC
330
1F
100
AcDbEntity
  8
0
  6
Continuous
 62
     7
370
    25
100
AcDbLine
 10
494.513678562
 20
196.0314365546
 30
0.0
 11
480.513678562
 21
196.0314365546
 31
0.0
  0
LINE
  5
CD
330
1F
100
AcDbEntity
  8
0
  6
Continuous
 62
     7
370
    25
100
AcDbLine
 10
66.8295369748
 20
19.9669285785
 30
0.0
 11
66.8295369748
 21
-169.0330714215
 31
0.0
  0
LINE
  5
CE
330
1F
100
AcDbEntity
  8
0
  6
Continuous
 62
     7
370
    25
100
AcDbLine
 10
161.8295369748
 20
-37.0428621662
 30
0.0
 11
161.8295369748
 21
19.9669285785
 31
0.0
  0
LINE
  5
CF
330
1F
100
AcDbEntity
  8
0
  6
Continuous
 62
     7
370
    25
100
AcDbLine
 10
161.8295369748
 20
-169.0330714215
 30
0.0
 11
161.8295369748
 21
-112.0330714215
 31
0.0
  0
LINE
  5
D0
330
1F
100
AcDbEntity
  8
0
  6
Continuous
 62
     7
370
    25
100
AcDbLine
 10
161.8295369748
 20
-112.0330714215
 30
0.0
 11
243.3295369748
 21
-112.0330714215
 31
0.0
  0
LINE
  5
D1
330
1F
100
AcDbEntity
  8
0
  6
Continuous
 62
     7
370
    25
100
AcDbLine
 10
243.3295369748
 20
-37.0330714215
 30
0.0
 11
161.8218083088
 21
-37.0330714215
 31
0.0
  0
CIRCLE
  5
D2
330
1F
100
AcDbEntity
  8
0
  6
Continuous
 62
     7
370
    25
100
AcDbCircle
 10
114.3295369748
 20
11.9669285785
 30
0.0
 40
5.000000000000004
  0
CIRCLE
  5
D3
330
1F
100
AcDbEntity
  8
0
  6
Continuous
 62
     7
370
    25
100
AcDbCircle
 10
114.3295369748
 20
11.9669285785
 30
0.0
 40
7.000000000000021
  0
CIRCLE
  5
D4
330
1F
100
AcDbEntity
  8
0
  6
Continuous
 62
     7
370
    25
100
AcDbCircle
 10
114.3295369748
 20
-161.0330714215
 30
0.0
 40
7.000000000000028
  0
CIRCLE
  5
D5
330
1F
100
AcDbEntity
  8
0
  6
Continuous
 62
     7
370
    25
100
AcDbCircle
 10
114.3295369748
 20
-161.0330714215
 30
0.0
 40
5.0
  0
LWPOLYLINE
  5
D6
330
1F
100
AcDbEntity
  8
0
  6
Continuous
 62
     7
370
    25
100
AcDbPolyline
 90
       42
 70
   128
 43
0.0
 10
161.8218059472
 20
-37.0428621662
 10
161.7671610324
 20
-37.1120637538
 10
161.5509145609
 20
-37.3866247391
 10
161.2263067096
 20
-37.8001289224
 10
160.785639369
 20
-38.3644462104
 10
160.2208507012
 20
-39.0927767989
 10
159.551697578
 20
-39.9636657335
 10
158.748713543
 20
-41.0209066574
 10
157.8551196568
 20
-42.2147121221
 10
155.8039123447
 20
-45.0352102733
 10
154.4971348645
 20
-46.9025992445
 10
153.139486935
 20
-48.9164319871
 10
151.7252215789
 20
-51.1140677397
 10
150.3079520074
 20
-53.4511752008
 10
148.9531338693
 20
-55.8566443683
 10
147.6541062658
 20
-58.3922251479
 10
146.4189073334
 20
-61.126467736
 10
145.3293133562
 20
-63.9980756599
 10
144.2169780649
 20
-67.9559037246
 10
143.8259017833
 20
-70.0590625931
 10
143.5776923525
 20
-72.1975644101
 10
143.5452402325
 20
-76.4191564788
 10
143.7651077834
 20
-78.5867010513
 10
144.133745442
 20
-80.7210308877
 10
144.7317666412
 20
-83.1518562816
 10
145.480924763
 20
-85.5061731312
 10
146.3764593663
 20
-87.8375551124
 10
147.3694538672
 20
-90.0777202839
 10
148.8854135945
 20
-93.0840353177
 10
150.4815906773
 20
-95.9099511496
 10
152.1519255145
 20
-98.6277915132
 10
153.8071072717
 20
-101.1503319219
 10
155.3815729476
 20
-103.4343075459
 10
156.8638891194
 20
-105.5035591858
 10
158.2631300052
 20
-107.3990068278
 10
159.4835073595
 20
-109.0132257353
 10
160.1831635484
 20
-109.9245551637
 10
160.7719569428
 20
-110.6841208183
 10
161.2497563172
 20
-111.2959588439
 10
161.5894325626
 20
-111.7284707468
 10
161.8295369748
 20
-112.0330714215
 10
161.8295369748
 20
-112.0330714215
  0
LINE
  5
D7
330
1F
100
AcDbEntity
  8
0
  6
Continuous
 62
     7
370
    25
100
AcDbLine
 10
161.8295369748
 20
-169.0330714215
 30
0.0
 11
66.8295369748
 21
-169.0330714215
 31
0.0
  0
LINE
  5
D8
330
1F
100
AcDbEntity
  8
0
  6
Continuous
 62
     7
370
    25
100
AcDbLine
 10
161.8295369748
 20
19.9669285785
 30
0.0
 11
66.8295369748
 21
19.9669285785
 31
0.0
  0
LINE
  5
D9
330
1F
100
AcDbEntity
  8
0
  6
Continuous
 62
     7
370
    25
100
AcDbLine
 10
243.3295369748
 20
-37.0330714215
 30
0.0
 11
243.3295369748
 21
-112.0330714215
 31
0.0
  0
INSERT
  5
E5
330
1F
100
AcDbEntity
  8
FORMAT
 62
     7
100
AcDbBlockReference
  2
SW_CENTERMARKSYMBOL_2
 10
114.3295369748
 20
11.9669285785
 30
0.0
  0
INSERT
  5
F1
330
1F
100
AcDbEntity
  8
FORMAT
 62
     7
100
AcDbBlockReference
  2
SW_CENTERMARKSYMBOL_3
 10
114.3295369748
 20
-161.0330714215
 30
0.0
  0
LINE
  5
F2
330
1F
100
AcDbEntity
  8
0
  6
Continuous
 62
     7
370
    25
100
AcDbLine
 10
428.6164787532
 20
-108.106302049
 30
0.0
 11
491.9712081441
 21
-71.5323952692
 31
0.0
  0
LINE
  5
F3
330
1F
100
AcDbEntity
  8
0
  6
Continuous
 62
     7
370
    25
100
AcDbLine
 10
454.4742556703
 20
-6.5787305906
 30
0.0
 11
391.1225876254
 21
-43.1508700931
 31
0.0
  0
LINE
  5
F4
330
1F
100
AcDbEntity
  8
0
  6
Continuous
 62
     7
370
    25
100
AcDbLine
 10
392.0067698738
 20
-42.6404425458
 30
0.0
 11
338.9324362121
 21
-12.0012818958
 31
0.0
  0
LINE
  5
F5
330
1F
100
AcDbEntity
  8
0
  6
Continuous
 62
     7
370
    25
100
AcDbLine
 10
472.5756178563
 20
-89.151848463
 30
0.0
 11
467.0128654215
 21
-85.940539837
 31
0.0
  0
LINE
  5
F6
330
1F
100
AcDbEntity
  8
0
  6
Continuous
 62
     7
370
    25
100
AcDbLine
 10
291.4362964119
 20
-94.2759238219
 30
0.0
 11
425.0794780561
 21
-171.4264903892
 31
0.0
  0
LINE
  5
F7
330
1F
100
AcDbEntity
  8
0
  6
Continuous
 62
     7
370
    25
100
AcDbLine
 10
327.8412205615
 20
-9.9054775763
 30
0.0
 11
327.8412205615
 21
12.5934632982
 31
0.0
  0
LINE
  5
F8
330
1F
100
AcDbEntity
  8
0
  6
Continuous
 62
     7
370
    25
100
AcDbLine
 10
313.8412205615
 20
12.5934632982
 30
0.0
 11
313.8412205615
 21
-15.1593202966
 31
0.0
  0
SPLINE
  5
F9
330
1F
100
AcDbEntity
  8
0
  6
Continuous
 62
     7
370
    25
100
AcDbSpline
210
0.0
220
0.0
230
1.0
 70
     8
 71
     3
 72
    38
 73
    34
 74
     0
 42
0.00000001
 43
0.00000001
 40
0.0
 40
0.0
 40
0.0
 40
0.0
 40
0.0284859655482406
 40
0.0569728121463289
 40
0.0864073986924076
 40
0.1158445508596974
 40
0.1442992661992323
 40
0.1727567062849166
 40
0.2019079804084163
 40
0.2310619888047563
 40
0.2692150208736785
 40
0.3073737140383627
 40
0.3466242961926242
 40
0.3858772221400825
 40
0.4245648281297189
 40
0.4632487279651952
 40
0.503117617245795
 40
0.5429683471525696
 40
0.588129394285573
 40
0.6112777620595656
 40
0.6344222949069307
 40
0.6796622753985053
 40
0.7030940151887191
 40
0.7265290912326505
 40
0.7532398384025791
 40
0.7799578060148719
 40
0.8074171536818219
 40
0.834881655675208
 40
0.8739322699408756
 40
0.9129905918805614
 40
0.9531416976599892
 40
0.9932923256839463
 40
1.0
 40
1.0
 40
1.0
 40
1.0
 10
389.0770249459792
 20
-57.01654139000056
 30
0.0
 10
389.0797568111345
 20
-57.75688294573298
 30
0.0
 10
389.0852206259399
 20
-59.2375889554146
 30
0.0
 10
389.1297749079226
 20
-61.64138741647162
 30
0.0
 10
389.2024651685297
 20
-64.16503989033322
 30
0.0
 10
389.3061347926011
 20
-66.77081891930591
 30
0.0
 10
389.4388262232542
 20
-69.40355936792753
 30
0.0
 10
389.6017085938533
 20
-72.06338530581618
 30
0.0
 10
389.7985121960076
 20
-74.76358843743932
 30
0.0
 10
390.0562694339411
 20
-77.7680845230366
 30
0.0
 10
390.3907829859696
 20
-81.0374761268858
 30
0.0
 10
390.831606070005
 20
-84.57195554034517
 30
0.0
 10
391.3632994733759
 20
-88.06833379223401
 30
0.0
 10
392.0040833799711
 20
-91.48602414072526
 30
0.0
 10
392.7669287947216
 20
-94.77360402432346
 30
0.0
 10
393.6905828098525
 20
-97.9428079870123
 30
0.0
 10
394.8193984385244
 20
-100.9768065932523
 30
0.0
 10
396.2755665580356
 20
-103.9547464813202
 30
0.0
 10
397.8378624686674
 20
-106.2763281919243
 30
0.0
 10
399.4000326511755
 20
-108.0013790093187
 30
0.0
 10
401.1303436506422
 20
-109.5470820032762
 30
0.0
 10
403.1220397812203
 20
-110.7971169991444
 30
0.0
 10
405.3234885422214
 20
-111.704639281077
 30
0.0
 10
407.172542648898
 20
-112.245981367896
 30
0.0
 10
409.1819502907533
 20
-112.6083272462116
 30
0.0
 10
411.3514313315384
 20
-112.7796427940192
 30
0.0
 10
413.5712440572548
 20
-112.7532809922743
 30
0.0
 10
416.1351479434325
 20
-112.5128304544988
 30
0.0
 10
418.9977547097401
 20
-111.9807477955391
 30
0.0
 10
422.1439435533506
 20
-111.085173986539
 30
0.0
 10
425.1999225445882
 20
-109.8758379171191
 30
0.0
 10
427.3740226359498
 20
-108.8611547196956
 30
0.0
 10
428.4513028274133
 20
-108.1848522801966
 30
0.0
 10
428.6055133794525
 20
-108.0880409089609
 30
0.0
  0
SPLINE
  5
FA
330
1F
100
AcDbEntity
  8
0
  6
Continuous
 62
     7
370
    25
100
AcDbSpline
210
0.0
220
0.0
230
1.0
 70
     8
 71
     3
 72
    17
 73
    13
 74
     0
 42
0.00000001
 43
0.00000001
 40
0.0
 40
0.0
 40
0.0
 40
0.0
 40
0.0052516897138528
 40
0.1269303077615465
 40
0.2485908726904107
 40
0.3746652519665246
 40
0.500706270006271
 40
0.585525343303428
 40
0.6703368206312671
 40
0.7574918636291248
 40
0.8446402584468875
 40
0.9999999999999999
 40
0.9999999999999999
 40
0.9999999999999999
 40
0.9999999999999999
 10
391.1256401933609
 20
-43.15646573339901
 30
0.0
 10
391.1169214204151
 20
-43.15905977659904
 30
0.0
 10
390.9061937130244
 20
-43.22175630279629
 30
0.0
 10
390.5913333995931
 20
-43.61647887443701
 30
0.0
 10
390.1632679023629
 20
-44.39184977951217
 30
0.0
 10
389.8206193362535
 20
-45.5591955250413
 30
0.0
 10
389.5725844638059
 20
-46.93479542948499
 30
0.0
 10
389.3990598417573
 20
-48.39781754349774
 30
0.0
 10
389.2771398007113
 20
-49.84344998131696
 30
0.0
 10
389.1838645921244
 20
-51.48647040262869
 30
0.0
 10
389.0985783024619
 20
-53.78279048074938
 30
0.0
 10
389.0854411164683
 20
-55.75382395694258
 30
0.0
 10
389.0770249459792
 20
-57.01654139000056
 30
0.0
  0
LWPOLYLINE
  5
FB
330
1F
100
AcDbEntity
  8
0
  6
Continuous
 62
     7
370
    25
100
AcDbPolyline
 90
       87
 70
   128
 43
0.0
 10
499.7392362017
 20
-54.3632150266
 10
499.66849769
 20
-52.0872415469
 10
499.4566595755
 20
-49.7417384233
 10
499.1048521061
 20
-47.3392199298
 10
498.6149523271
 20
-44.8925045421
 10
497.9895740655
 20
-42.4146465455
 10
497.2320539851
 20
-39.9188663844
 10
496.3464337832
 20
-37.4184801258
 10
495.3374386269
 20
-34.9268284123
 10
494.2104519417
 20
-32.4572052838
 10
492.9714866893
 20
-30.0227872483
 10
491.6271532854
 20
-27.6365629793
 10
490.1846243304
 20
-25.3112640157
 10
488.6515963404
 20
-23.0592968337
 10
487.0362486829
 20
-20.8926766524
 10
485.3471999367
 20
-18.8229633279
 10
483.5934619077
 20
-16.8611996765
 10
481.7843915469
 20
-15.0178525559
 10
479.9296410276
 20
-13.3027570206
 10
478.0391062462
 20
-11.7250638474
 10
476.1228740238
 20
-10.293190712
 10
474.1911682884
 20
-9.014777277
 10
472.2542955259
 20
-7.8966444314
 10
470.3225897905
 20
-6.9447578975
 10
468.4063575681
 20
-6.164196402
 10
466.5158227868
 20
-5.5591245781
 10
464.6610722674
 20
-5.1327707458
 10
462.8520019067
 20
-4.8874096872
 10
461.0982638776
 20
-4.8243505099
 10
459.4092151315
 20
-4.9439296617
 10
457.793867474
 20
-5.2455091362
 10
456.2608394839
 20
-5.7274798764
 10
454.8183105289
 20
-6.3872703599
 10
453.473977125
 20
-7.2213603189
 10
452.2350118727
 20
-8.2252995226
 10
451.1080251875
 20
-9.393731521
 10
450.0990300311
 20
-10.7204222238
 10
449.2134098292
 20
-12.1982931622
 10
448.4558897488
 20
-13.8194592551
 10
447.8305114873
 20
-15.5752708802
 10
447.3406117082
 20
-17.4563600226
 10
446.9888042389
 20
-19.452690258
 10
446.7769661244
 20
-21.5536103007
 10
446.7062276127
 20
-23.7479108332
 10
446.7769661244
 20
-26.0238843129
 10
446.9888042389
 20
-28.3693874365
 10
447.3406117082
 20
-30.77190593
 10
447.8305114873
 20
-33.2186213177
 10
448.4558897488
 20
-35.6964793143
 10
449.2134098292
 20
-38.1922594754
 10
450.0990300311
 20
-40.692645734
 10
451.1080251875
 20
-43.1842974475
 10
452.2350118727
 20
-45.653920576
 10
453.473977125
 20
-48.0883386115
 10
454.8183105289
 20
-50.4745628805
 10
456.2608394839
 20
-52.7998618441
 10
457.793867474
 20
-55.0518290261
 10
459.4092151315
 20
-57.2184492074
 10
461.0982638776
 20
-59.2881625319
 10
462.8520019067
 20
-61.2499261833
 10
464.6610722674
 20
-63.0932733039
 10
466.5158227868
 20
-64.8083688392
 10
468.4063575681
 20
-66.3860620124
 10
470.3225897905
 20
-67.8179351478
 10
472.2542955259
 20
-69.0963485828
 10
474.1911682884
 20
-70.2144814284
 10
476.1228740238
 20
-71.1663679623
 10
478.0391062462
 20
-71.9469294578
 10
479.9296410276
 20
-72.5520012817
 10
481.7843915469
 20
-72.978355114
 10
483.5934619077
 20
-73.2237161726
 10
485.3471999367
 20
-73.2867753499
 10
487.0362486829
 20
-73.1671961981
 10
488.6515963404
 20
-72.8656167236
 10
490.1846243304
 20
-72.3836459834
 10
491.6271532854
 20
-71.7238554999
 10
492.9714866893
 20
-70.889765541
 10
494.2104519417
 20
-69.8858263372
 10
495.3374386269
 20
-68.7173943388
 10
496.3464337832
 20
-67.390703636
 10
497.2320539851
 20
-65.9128326976
 10
497.9895740655
 20
-64.2916666047
 10
498.6149523271
 20
-62.5358549796
 10
499.1048521061
 20
-60.6547658372
 10
499.4566595755
 20
-58.6584356018
 10
499.66849769
 20
-56.5575155591
 10
499.7392362017
 20
-54.3632150266
  0
LWPOLYLINE
  5
FC
330
1F
100
AcDbEntity
  8
0
  6
Continuous
 62
     7
370
    25
100
AcDbPolyline
 90
       79
 70
   128
 43
0.0
 10
494.9309100896
 20
-51.5874274464
 10
494.8605171568
 20
-49.5296703846
 10
494.6497948835
 20
-47.4039847168
 10
494.3001098846
 20
-45.2241563301
 10
493.8137300015
 20
-43.0043222481
 10
493.1938095943
 20
-40.7588789467
 10
492.4443690848
 20
-38.5023889873
 10
491.5702688822
 20
-36.2494865731
 10
490.5771778618
 20
-34.014782641
 10
489.4715365999
 20
-31.8127701033
 10
488.2605156045
 20
-29.6577298564
 10
486.9519688113
 20
-27.5636381632
 10
485.5543826484
 20
-25.5440760119
 10
484.0768209984
 20
-23.6121410381
 10
482.5288664156
 20
-21.7803625814
 10
480.9205579795
 20
-20.060620428
 10
479.2623261873
 20
-18.4640677657
 10
477.5649253087
 20
-17.0010588511
 10
475.8393636397
 20
-15.6810818584
 10
474.0968321098
 20
-14.5126973451
 10
472.3486317046
 20
-13.5034827329
 10
470.6061001747
 20
-12.659983166
 10
468.8805385056
 20
-11.9876690626
 10
467.183137627
 20
-11.4909006378
 10
465.5249058349
 20
-11.1728996254
 10
463.9165973988
 20
-11.035728384
 10
462.368642816
 20
-11.0802765216
 10
460.891081166
 20
-11.3062551267
 10
459.4934950031
 20
-11.7121986411
 10
458.1849482099
 20
-12.2954743655
 10
456.9739272144
 20
-13.0522995329
 10
455.8682859526
 20
-13.9777658417
 10
454.8751949322
 20
-15.0658712877
 10
454.0010947296
 20
-16.3095590897
 10
453.2516542201
 20
-17.7007634549
 10
452.6317338129
 20
-19.2304618892
 10
452.1453539297
 20
-20.8887337113
 10
451.7956689308
 20
-22.6648243921
 10
451.5849466576
 20
-24.5472153019
 10
451.5145537248
 20
-26.5236984134
 10
451.5849466576
 20
-28.5814554752
 10
451.7956689308
 20
-30.707141143
 10
452.1453539297
 20
-32.8869695297
 10
452.6317338129
 20
-35.1068036117
 10
453.2516542201
 20
-37.3522469131
 10
454.0010947296
 20
-39.6087368725
 10
454.8751949322
 20
-41.8616392867
 10
455.8682859526
 20
-44.0963432188
 10
456.9739272144
 20
-46.2983557565
 10
458.1849482099
 20
-48.4533960034
 10
459.4934950031
 20
-50.5474876966
 10
460.891081166
 20
-52.5670498479
 10
462.368642816
 20
-54.4989848217
 10
463.9165973988
 20
-56.3307632784
 10
465.5249058349
 20
-58.0505054318
 10
467.183137627
 20
-59.6470580941
 10
468.8805385056
 20
-61.1100670087
 10
470.6061001747
 20
-62.4300440014
 10
472.3486317046
 20
-63.5984285147
 10
474.0968321098
 20
-64.6076431269
 10
475.8393636397
 20
-65.4511426938
 10
477.5649253087
 20
-66.1234567972
 10
479.2623261873
 20
-66.620225222
 10
480.9205579795
 20
-66.9382262344
 10
482.5288664156
 20
-67.0753974758
 10
484.0768209984
 20
-67.0308493382
 10
485.5543826484
 20
-66.8048707331
 10
486.9519688113
 20
-66.3989272187
 10
488.2605156045
 20
-65.8156514943
 10
489.4715365999
 20
-65.0588263269
 10
490.5771778618
 20
-64.1333600181
 10
491.5702688822
 20
-63.0452545721
 10
492.4443690848
 20
-61.8015667701
 10
493.1938095943
 20
-60.4103624049
 10
493.8137300015
 20
-58.8806639706
 10
494.3001098846
 20
-57.2223921485
 10
494.6497948835
 20
-55.4463014677
 10
494.8605171568
 20
-53.5639105579
 10
494.9309100896
 20
-51.5874274464
  0
LWPOLYLINE
  5
FD
330
1F
100
AcDbEntity
  8
0
  6
Continuous
 62
     7
370
    25
100
AcDbPolyline
 90
       98
 70
   128
 43
0.0
 10
348.7719384183
 20
-33.7489102031
 10
348.7014994434
 20
-31.2789831814
 10
348.490477964
 20
-28.9007430015
 10
348.1397590777
 20
-26.6241648291
 10
347.6508138214
 20
-24.4587974241
 10
347.0256930013
 20
-22.4137230901
 10
346.2670185914
 20
-20.4975195796
 10
345.3779727358
 20
-18.7182241158
 10
344.3622844019
 20
-17.0832996824
 10
343.2242137395
 20
-15.5996037207
 10
341.9685342125
 20
-14.2733593671
 10
340.6005125771
 20
-13.1101293513
 10
339.1258867915
 20
-12.1147926643
 10
337.5508419488
 20
-11.291524094
 10
335.8819843343
 20
-10.6437767149
 10
334.126313717
 20
-10.1742674047
 10
332.2911939894
 20
-9.8849654485
 10
330.3843222815
 20
-9.7770842794
 10
328.413696676
 20
-9.8510763883
 10
326.3875826613
 20
-10.1066314268
 10
324.3144784639
 20
-10.5426775081
 10
322.2030794032
 20
-11.1573857034
 10
320.0622414206
 20
-11.948177713
 10
317.9009439346
 20
-12.9117366804
 10
315.728252178
 20
-14.0440211043
 10
313.5532791751
 20
-15.3402817905
 10
311.3851475184
 20
-16.795081771
 10
309.2329511057
 20
-18.4023191093
 10
307.1057169967
 20
-20.1552524933
 10
305.0123675503
 20
-22.0465295113
 10
302.9616830019
 20
-24.0682174901
 10
300.9622646349
 20
-26.2118367679
 10
299.0224987048
 20
-28.4683962604
 10
297.1505212642
 20
-30.8284311728
 10
295.3541840369
 20
-33.2820426986
 10
293.6410214855
 20
-35.8189395384
 10
292.0182192092
 20
-38.4284810652
 10
290.4925838046
 20
-41.0997219548
 10
289.0705143169
 20
-43.8214580948
 10
287.7579753996
 20
-46.5822735779
 10
286.5604722972
 20
-49.3705885845
 10
285.4830277538
 20
-52.1747079524
 10
284.5301609462
 20
-54.9828702305
 10
283.705868529
 20
-57.7832970104
 10
283.0136078711
 20
-60.5642423288
 10
282.4562825542
 20
-63.3140419347
 10
282.0362301944
 20
-66.0211622129
 10
281.7552126373
 20
-68.6742485602
 10
281.6144085681
 20
-71.2621730103
 10
281.6144085681
 20
-73.7740809089
 10
281.7552126373
 20
-76.1994364412
 10
282.0362301944
 20
-78.5280668232
 10
282.4562825542
 20
-80.7502049699
 10
283.0136078711
 20
-82.8565304617
 10
283.705868529
 20
-84.8382086374
 10
284.5301609462
 20
-86.68692765
 10
285.4830277538
 20
-88.3949333296
 10
286.5604722972
 20
-89.9550617068
 10
287.7579753996
 20
-91.3607690609
 10
289.0705143169
 20
-92.6061593668
 10
290.4925838046
 20
-93.6860090248
 10
292.0182192092
 20
-94.5957887702
 10
293.6410214855
 20
-95.3316826704
 10
295.3541840369
 20
-95.8906041307
 10
297.1505212642
 20
-96.2702088404
 10
299.0224987048
 20
-96.4689046052
 10
300.9622646349
 20
-96.4858580262
 10
302.9616830019
 20
-96.3209979948
 10
305.0123675503
 20
-95.9750159913
 10
307.1057169967
 20
-95.4493631844
 10
309.2329511057
 20
-94.7462443446
 10
311.3851475184
 20
-93.8686085967
 10
313.5532791751
 20
-92.8201370502
 10
315.728252178
 20
-91.6052273589
 10
317.9009439346
 20
-90.2289752763
 10
320.0622414206
 20
-88.6971532821
 10
322.2030794032
 20
-87.0161863698
 10
324.3144784639
 20
-85.1931250991
 10
326.3875826613
 20
-83.2356160223
 10
328.413696676
 20
-81.1518696129
 10
330.3843222815
 20
-78.9506258274
 10
332.2911939894
 20
-76.6411174473
 10
334.126313717
 20
-74.2330313532
 10
335.8819843343
 20
-71.7364678953
 10
337.5508419488
 20
-69.1618985281
 10
339.1258867915
 20
-66.5201218905
 10
340.6005125771
 20
-63.8222185116
 10
341.9685342125
 20
-61.0795043358
 10
343.2242137395
 20
-58.3034832596
 10
344.3622844019
 20
-55.5057988801
 10
345.3779727358
 20
-52.6981856578
 10
346.2670185914
 20
-49.8924196983
 10
347.0256930013
 20
-47.1002693591
 10
347.6508138214
 20
-44.3334458891
 10
348.1397590777
 20
-41.6035543074
 10
348.490477964
 20
-38.922044728
 10
348.7014994434
 20
-36.3001643341
 10
348.7719384183
 20
-33.7489102031
  0
LWPOLYLINE
  5
FE
330
1F
100
AcDbEntity
  8
0
  6
Continuous
 62
     7
370
    25
100
AcDbPolyline
 90
       14
 70
   128
 43
0.0
 10
482.4151200626
 20
-110.8994767703
 10
482.3446810876
 20
-108.4295497487
 10
482.1336596083
 20
-106.0513095687
 10
481.782940722
 20
-103.7747313963
 10
481.2939954656
 20
-101.6093639914
 10
480.6688746455
 20
-99.5642896574
 10
479.9102002356
 20
-97.6480861468
 10
479.0211543801
 20
-95.8687906831
 10
478.0054660462
 20
-94.2338662497
 10
476.8673953838
 20
-92.750170288
 10
475.6117158567
 20
-91.4239259343
 10
474.2436942213
 20
-90.2606959185
 10
472.7690684358
 20
-89.2653592315
 10
472.5756178563
 20
-89.151848463
  0
LWPOLYLINE
  5
FF
330
1F
100
AcDbEntity
  8
0
  6
Continuous
 62
     7
370
    25
100
AcDbPolyline
 90
       38
 70
   128
 43
0.0
 10
425.0794780561
 20
-171.4264903892
 10
425.6614008534
 20
-171.7463553374
 10
427.2842031298
 20
-172.4822492376
 10
428.9973656811
 20
-173.041170698
 10
430.7937029084
 20
-173.4207754076
 10
432.6656803491
 20
-173.6194711725
 10
434.6054462791
 20
-173.6364245935
 10
436.6048646461
 20
-173.4715645621
 10
438.6555491946
 20
-173.1255825585
 10
440.7488986409
 20
-172.5999297516
 10
442.87613275
 20
-171.8968109118
 10
445.0283291627
 20
-171.019175164
 10
447.1964608193
 20
-169.9707036174
 10
449.3714338223
 20
-168.7557939261
 10
451.5441255789
 20
-167.3795418436
 10
453.7054230649
 20
-165.8477198493
 10
455.8462610474
 20
-164.1667529371
 10
457.9576601082
 20
-162.3436916663
 10
460.0307643056
 20
-160.3861825896
 10
462.0568783202
 20
-158.3024361801
 10
464.0275039258
 20
-156.1011923946
 10
465.9343756337
 20
-153.7916840145
 10
467.7694953612
 20
-151.3835979205
 10
469.5251659786
 20
-148.8870344625
 10
471.194023593
 20
-146.3124650954
 10
472.7690684358
 20
-143.6706884577
 10
474.2436942213
 20
-140.9727850788
 10
475.6117158567
 20
-138.2300709031
 10
476.8673953838
 20
-135.4540498269
 10
478.0054660462
 20
-132.6563654474
 10
479.0211543801
 20
-129.8487522251
 10
479.9102002356
 20
-127.0429862655
 10
480.6688746455
 20
-124.2508359263
 10
481.2939954656
 20
-121.4840124563
 10
481.782940722
 20
-118.7541208746
 10
482.1336596083
 20
-116.0726112953
 10
482.3446810876
 20
-113.4507309013
 10
482.4151200626
 20
-110.8994767703
  0
LWPOLYLINE
  5
100
330
1F
100
AcDbEntity
  8
0
  6
Continuous
 62
     7
370
    25
100
AcDbPolyline
 90
       87
 70
   128
 43
0.0
 10
341.7008706065
 20
-37.8309507622
 10
341.6301320948
 20
-35.6366502296
 10
341.4182939803
 20
-33.5357301869
 10
341.066486511
 20
-31.5393999516
 10
340.5765867319
 20
-29.6583108092
 10
339.9512084703
 20
-27.9024991841
 10
339.1936883899
 20
-26.2813330911
 10
338.308068188
 20
-24.8034621528
 10
337.2990730317
 20
-23.4767714499
 10
336.1720863465
 20
-22.3083394515
 10
334.9331210941
 20
-21.3044002478
 10
333.5887876903
 20
-20.4703102888
 10
332.1462587352
 20
-19.8105198054
 10
330.6132307452
 20
-19.3285490652
 10
328.9978830877
 20
-19.0269695907
 10
327.3088343415
 20
-18.9073904388
 10
325.5550963125
 20
-18.9704496162
 10
323.7460259517
 20
-19.2158106747
 10
321.8912754324
 20
-19.642164507
 10
320.000740651
 20
-20.2472363309
 10
318.0845084286
 20
-21.0277978264
 10
316.1528026932
 20
-21.9796843603
 10
314.2159299307
 20
-23.097817206
 10
312.2842241953
 20
-24.3762306409
 10
310.3679919729
 20
-25.8081037764
 10
308.4774571916
 20
-27.3857969496
 10
306.6227066723
 20
-29.1008924849
 10
304.8136363115
 20
-30.9442396054
 10
303.0598982825
 20
-32.9060032569
 10
301.3708495363
 20
-34.9757165813
 10
299.7555018788
 20
-37.1423367626
 10
298.2224738887
 20
-39.3943039447
 10
296.7799449337
 20
-41.7196029082
 10
295.4356115298
 20
-44.1058271772
 10
294.1966462775
 20
-46.5402452127
 10
293.0696595923
 20
-49.0098683412
 10
292.0606644359
 20
-51.5015200547
 10
291.1750442341
 20
-54.0019063133
 10
290.4175241537
 20
-56.4976864744
 10
289.7921458921
 20
-58.9755444711
 10
289.302246113
 20
-61.4222598588
 10
288.9504386437
 20
-63.8247783522
 10
288.7386005292
 20
-66.1702814758
 10
288.6678620175
 20
-68.4462549555
 10
288.7386005292
 20
-70.6405554881
 10
288.9504386437
 20
-72.7414755308
 10
289.302246113
 20
-74.7378057661
 10
289.7921458921
 20
-76.6188949085
 10
290.4175241537
 20
-78.3747065336
 10
291.1750442341
 20
-79.9958726266
 10
292.0606644359
 20
-81.4737435649
 10
293.0696595923
 20
-82.8004342678
 10
294.1966462775
 20
-83.9688662662
 10
295.4356115298
 20
-84.9728054699
 10
296.7799449337
 20
-85.8068954289
 10
298.2224738887
 20
-86.4666859123
 10
299.7555018788
 20
-86.9486566525
 10
301.3708495363
 20
-87.250236127
 10
303.0598982825
 20
-87.3698152788
 10
304.8136363115
 20
-87.3067561015
 10
306.6227066723
 20
-87.061395043
 10
308.4774571916
 20
-86.6350412107
 10
310.367991973
 20
-86.0299693868
 10
312.2842241953
 20
-85.2494078912
 10
314.2159299307
 20
-84.2975213574
 10
316.1528026932
 20
-83.1793885117
 10
318.0845084286
 20
-81.9009750768
 10
320.000740651
 20
-80.4691019413
 10
321.8912754324
 20
-78.8914087681
 10
323.7460259517
 20
-77.1763132328
 10
325.5550963125
 20
-75.3329661122
 10
327.3088343415
 20
-73.3712024608
 10
328.9978830877
 20
-71.3014891364
 10
330.6132307452
 20
-69.1348689551
 10
332.1462587352
 20
-66.882901773
 10
333.5887876903
 20
-64.5576028094
 10
334.9331210941
 20
-62.1713785404
 10
336.1720863465
 20
-59.736960505
 10
337.2990730317
 20
-57.2673373765
 10
338.308068188
 20
-54.775685663
 10
339.1936883899
 20
-52.2752994044
 10
339.9512084703
 20
-49.7795192433
 10
340.5765867319
 20
-47.3016612466
 10
341.066486511
 20
-44.8549458589
 10
341.4182939803
 20
-42.4524273655
 10
341.6301320948
 20
-40.1069242419
 10
341.7008706065
 20
-37.8309507622
  0
ARC
  5
101
330
1F
100
AcDbEntity
  8
0
  6
Continuous
 62
     7
370
    25
100
AcDbCircle
 10
317.2711398525
 20
12.2966983872
 30
0.0
 40
3.442733761909606
100
AcDbArc
 50
113.6249132
 51
175.0549458424
  0
LWPOLYLINE
  5
102
330
1F
100
AcDbEntity
  8
0
  6
Continuous
 62
     7
370
    25
100
AcDbPolyline
 90
       15
 70
   128
 43
0.0
 10
327.8412205615
 20
12.5934632982
 10
327.764087381
 20
13.1917058047
 10
327.4893729134
 20
13.8585100343
 10
327.0234032068
 20
14.4889211727
 10
326.3795833614
 20
15.064803439
 10
325.576434902
 20
15.569589749
 10
324.6370629473
 20
15.9887583197
 10
323.5884915183
 20
16.3102504344
 10
322.4608861058
 20
16.5248173503
 10
321.2866858645
 20
16.6262863679
 10
320.0996703974
 20
16.6117384084
 10
318.9339879785
 20
16.48159199
 10
317.8231731685
 20
16.2395911883
 10
316.799182087
 20
15.8926979256
 10
315.8914730932
 20
15.4508916896
  0
ENDSEC
  0
SECTION
  2
OBJECTS
  0
DICTIONARY
  5
C
330
0
100
AcDbDictionary
281
     1
  3
ACAD_GROUP
350
D
  3
ACAD_LAYOUT
350
1A
  3
ACAD_MLINESTYLE
350
17
  3
ACAD_PLOTSETTINGS
350
19
  3
ACAD_PLOTSTYLENAME
350
E
  3
ACAD_SCALELIST
350
47
  3
DWGPROPS
350
103
  0
DICTIONARY
  5
D
102
{ACAD_REACTORS
330
C
102
}
330
C
100
AcDbDictionary
281
     1
  0
DICTIONARY
  5
1A
102
{ACAD_REACTORS
330
C
102
}
330
C
100
AcDbDictionary
281
     1
  3
Layout1
350
1E
  3
Layout2
350
26
  3
Model
350
22
  0
DICTIONARY
  5
17
102
{ACAD_REACTORS
330
C
102
}
330
C
100
AcDbDictionary
281
     1
  3
Standard
350
18
  0
DICTIONARY
  5
19
102
{ACAD_REACTORS
330
C
102
}
330
C
100
AcDbDictionary
281
     1
  0
ACDBDICTIONARYWDFLT
  5
E
102
{ACAD_REACTORS
330
C
102
}
330
C
100
AcDbDictionary
281
     1
  3
Normal
350
F
100
AcDbDictionaryWithDefault
340
F
  0
DICTIONARY
  5
47
102
{ACAD_REACTORS
330
C
102
}
330
C
100
AcDbDictionary
281
     1
  3
A0
350
48
  3
A1
350
49
  3
A2
350
4A
  3
A3
350
4B
  3
A4
350
4C
  3
A5
350
4D
  3
A6
350
4E
  3
A7
350
4F
  3
A8
350
50
  3
A9
350
51
  3
B0
350
52
  3
B1
350
53
  3
B2
350
54
  3
B3
350
55
  3
B4
350
56
  3
B5
350
57
  3
B6
350
58
  3
B7
350
59
  3
B8
350
5A
  3
B9
350
5B
  3
C0
350
5C
  3
C1
350
5D
  3
C2
350
5E
  3
C3
350
5F
  3
C4
350
60
  3
C5
350
61
  3
C6
350
62
  3
C7
350
63
  3
C8
350
64
  3
C9
350
65
  3
D0
350
66
  3
D1
350
67
  3
D2
350
68
  0
XRECORD
  5
103
102
{ACAD_REACTORS
330
C
102
}
330
C
100
AcDbXrecord
280
     1
  1
DWGPROPS COOKIE
  2

  3

  4

  6

  7

  8
b.kav
  9

300
=
301
=
302
=
303
=
304
=
305
=
306
=
307
=
308
=
309
=
 40
0.0
 41
2459741.482894248
 42
2459741.482894433
  1

 90
        0
  0
LAYOUT
  5
1E
102
{ACAD_REACTORS
330
1A
102
}
330
1A
100
AcDbPlotSettings
  1

  2
none_device
  4

  6

 40
0.0
 41
0.0
 42
0.0
 43
0.0
 44
0.0
 45
0.0
 46
0.0
 47
0.0
 48
0.0
 49
0.0
140
0.0
141
0.0
142
1.0
143
1.0
 70
   688
 72
     1
 73
     0
 74
     5
  7

 75
    16
147
1.0
148
0.0
149
0.0
100
AcDbLayout
  1
Layout1
 70
     1
 71
     1
 10
0.0
 20
0.0
 11
420.0
 21
297.0
 12
0.0
 22
0.0
 32
0.0
 14
1.0000000000E+20
 24
1.0000000000E+20
 34
1.0000000000E+20
 15
-1.0000000000E+20
 25
-1.0000000000E+20
 35
-1.0000000000E+20
146
0.0
 13
0.0
 23
0.0
 33
0.0
 16
1.0
 26
0.0
 36
0.0
 17
0.0
 27
1.0
 37
0.0
 76
     0
330
1B
  0
LAYOUT
  5
26
102
{ACAD_REACTORS
330
1A
102
}
330
1A
100
AcDbPlotSettings
  1

  2
none_device
  4

  6

 40
0.0
 41
0.0
 42
0.0
 43
0.0
 44
0.0
 45
0.0
 46
0.0
 47
0.0
 48
0.0
 49
0.0
140
0.0
141
0.0
142
1.0
143
1.0
 70
   688
 72
     1
 73
     0
 74
     5
  7

 75
    16
147
1.0
148
0.0
149
0.0
100
AcDbLayout
  1
Layout2
 70
     1
 71
     2
 10
0.0
 20
0.0
 11
0.0
 21
0.0
 12
0.0
 22
0.0
 32
0.0
 14
0.0
 24
0.0
 34
0.0
 15
0.0
 25
0.0
 35
0.0
146
0.0
 13
0.0
 23
0.0
 33
0.0
 16
1.0
 26
0.0
 36
0.0
 17
0.0
 27
1.0
 37
0.0
 76
     0
330
23
  0
LAYOUT
  5
22
102
{ACAD_REACTORS
330
1A
102
}
330
1A
100
AcDbPlotSettings
  1

  2
none_device
  4
Letter_(8.50_x_11.00_Inches)
  6

 40
6.35
 41
6.35
 42
6.35000508
 43
6.35000508
 44
215.9
 45
279.4
 46
0.0
 47
0.0
 48
0.0
 49
0.0
140
0.0
141
0.0
142
1.0
143
1.0
 70
  1712
 72
     1
 73
     0
 74
     0
  7

 75
     0
147
1.0
148
0.0
149
0.0
100
AcDbLayout
  1
Model
 70
     1
 71
     0
 10
0.0
 20
0.0
 11
279.4
 21
215.9
 12
0.0
 22
0.0
 32
0.0
 14
0.0
 24
0.0
 34
0.0
 15
279.4
 25
215.9
 35
0.0
146
0.0
 13
0.0
 23
0.0
 33
0.0
 16
1.0
 26
0.0
 36
0.0
 17
0.0
 27
1.0
 37
0.0
 76
     0
330
1F
331
29
  0
MLINESTYLE
  5
18
102
{ACAD_REACTORS
330
17
102
}
330
17
100
AcDbMlineStyle
  2
Standard
 70
     0
  3

 62
   256
 51
90.0
 52
90.0
 71
     2
 49
0.5
 62
   256
  6
BYLAYER
 49
-0.5
 62
   256
  6
BYLAYER
  0
ACDBPLACEHOLDER
  5
F
102
{ACAD_REACTORS
330
E
102
}
330
E
  0
SCALE
  5
48
102
{ACAD_REACTORS
330
47
102
}
330
47
100
AcDbScale
 70
     0
300
1:1
140
1.0
141
1.0
290
     1
  0
SCALE
  5
49
102
{ACAD_REACTORS
330
47
102
}
330
47
100
AcDbScale
 70
     0
300
1:2
140
1.0
141
2.0
290
     0
  0
SCALE
  5
4A
102
{ACAD_REACTORS
330
47
102
}
330
47
100
AcDbScale
 70
     0
300
1:4
140
1.0
141
4.0
290
     0
  0
SCALE
  5
4B
102
{ACAD_REACTORS
330
47
102
}
330
47
100
AcDbScale
 70
     0
300
1:5
140
1.0
141
5.0
290
     0
  0
SCALE
  5
4C
102
{ACAD_REACTORS
330
47
102
}
330
47
100
AcDbScale
 70
     0
300
1:8
140
1.0
141
8.0
290
     0
  0
SCALE
  5
4D
102
{ACAD_REACTORS
330
47
102
}
330
47
100
AcDbScale
 70
     0
300
1:10
140
1.0
141
10.0
290
     0
  0
SCALE
  5
4E
102
{ACAD_REACTORS
330
47
102
}
330
47
100
AcDbScale
 70
     0
300
1:16
140
1.0
141
16.0
290
     0
  0
SCALE
  5
4F
102
{ACAD_REACTORS
330
47
102
}
330
47
100
AcDbScale
 70
     0
300
1:20
140
1.0
141
20.0
290
     0
  0
SCALE
  5
50
102
{ACAD_REACTORS
330
47
102
}
330
47
100
AcDbScale
 70
     0
300
1:30
140
1.0
141
30.0
290
     0
  0
SCALE
  5
51
102
{ACAD_REACTORS
330
47
102
}
330
47
100
AcDbScale
 70
     0
300
1:40
140
1.0
141
40.0
290
     0
  0
SCALE
  5
52
102
{ACAD_REACTORS
330
47
102
}
330
47
100
AcDbScale
 70
     0
300
1:50
140
1.0
141
50.0
290
     0
  0
SCALE
  5
53
102
{ACAD_REACTORS
330
47
102
}
330
47
100
AcDbScale
 70
     0
300
1:100
140
1.0
141
100.0
290
     0
  0
SCALE
  5
54
102
{ACAD_REACTORS
330
47
102
}
330
47
100
AcDbScale
 70
     0
300
2:1
140
2.0
141
1.0
290
     0
  0
SCALE
  5
55
102
{ACAD_REACTORS
330
47
102
}
330
47
100
AcDbScale
 70
     0
300
4:1
140
4.0
141
1.0
290
     0
  0
SCALE
  5
56
102
{ACAD_REACTORS
330
47
102
}
330
47
100
AcDbScale
 70
     0
300
8:1
140
8.0
141
1.0
290
     0
  0
SCALE
  5
57
102
{ACAD_REACTORS
330
47
102
}
330
47
100
AcDbScale
 70
     0
300
10:1
140
10.0
141
1.0
290
     0
  0
SCALE
  5
58
102
{ACAD_REACTORS
330
47
102
}
330
47
100
AcDbScale
 70
     0
300
100:1
140
100.0
141
1.0
290
     0
  0
SCALE
  5
59
102
{ACAD_REACTORS
330
47
102
}
330
47
100
AcDbScale
 70
     0
300
1/128" = 1'-0"
140
0.0078125
141
12.0
290
     0
  0
SCALE
  5
5A
102
{ACAD_REACTORS
330
47
102
}
330
47
100
AcDbScale
 70
     0
300
1/64" = 1'-0"
140
0.015625
141
12.0
290
     0
  0
SCALE
  5
5B
102
{ACAD_REACTORS
330
47
102
}
330
47
100
AcDbScale
 70
     0
300
1/32" = 1'-0"
140
0.03125
141
12.0
290
     0
  0
SCALE
  5
5C
102
{ACAD_REACTORS
330
47
102
}
330
47
100
AcDbScale
 70
     0
300
1/16" = 1'-0"
140
0.0625
141
12.0
290
     0
  0
SCALE
  5
5D
102
{ACAD_REACTORS
330
47
102
}
330
47
100
AcDbScale
 70
     0
300
3/32" = 1'-0"
140
0.09375
141
12.0
290
     0
  0
SCALE
  5
5E
102
{ACAD_REACTORS
330
47
102
}
330
47
100
AcDbScale
 70
     0
300
1/8" = 1'-0"
140
0.125
141
12.0
290
     0
  0
SCALE
  5
5F
102
{ACAD_REACTORS
330
47
102
}
330
47
100
AcDbScale
 70
     0
300
3/16" = 1'-0"
140
0.1875
141
12.0
290
     0
  0
SCALE
  5
60
102
{ACAD_REACTORS
330
47
102
}
330
47
100
AcDbScale
 70
     0
300
1/4" = 1'-0"
140
0.25
141
12.0
290
     0
  0
SCALE
  5
61
102
{ACAD_REACTORS
330
47
102
}
330
47
100
AcDbScale
 70
     0
300
3/8" = 1'-0"
140
0.375
141
12.0
290
     0
  0
SCALE
  5
62
102
{ACAD_REACTORS
330
47
102
}
330
47
100
AcDbScale
 70
     0
300
1/2" = 1'-0"
140
0.5
141
12.0
290
     0
  0
SCALE
  5
63
102
{ACAD_REACTORS
330
47
102
}
330
47
100
AcDbScale
 70
     0
300
3/4" = 1'-0"
140
0.75
141
12.0
290
     0
  0
SCALE
  5
64
102
{ACAD_REACTORS
330
47
102
}
330
47
100
AcDbScale
 70
     0
300
1" = 1'-0"
140
1.0
141
12.0
290
     0
  0
SCALE
  5
65
102
{ACAD_REACTORS
330
47
102
}
330
47
100
AcDbScale
 70
     0
300
1-1/2" = 1'-0"
140
1.5
141
12.0
290
     0
  0
SCALE
  5
66
102
{ACAD_REACTORS
330
47
102
}
330
47
100
AcDbScale
 70
     0
300
3" = 1'-0"
140
3.0
141
12.0
290
     0
  0
SCALE
  5
67
102
{ACAD_REACTORS
330
47
102
}
330
47
100
AcDbScale
 70
     0
300
6" = 1'-0"
140
6.0
141
12.0
290
     0
  0
SCALE
  5
68
102
{ACAD_REACTORS
330
47
102
}
330
47
100
AcDbScale
 70
     0
300
1'-0" = 1'-0"
140
12.0
141
12.0
290
     0
  0
ENDSEC
  0
EOF
